» » »

Probot, My Tortured Soul Bass tabs (ver.1)

Artists:  A B C D E F G H I J K L M N O P Q R S T U V W X Y Z # 

My Tortured Soul Bass tabs (ver.1)

Probot Tabs
 Rating:
4/5 (4 votes)
My Tortured Soul lessons Tabs too difficult? Try these video lessons and learn fast
                "Intro/Verse"
E-----------------------------------------------
A-0-0-3-4----0-0-0-0-3-4---0-0-3-4----------0-3-
D-----------------------------------------------
G---------2--------------2---------2----2-0-----

"Oh No!/Please Come For Me..."
E-------------------------------------------------
A---------0-3-0-3-0------------0-3-0-3-0----------
D--2-1-0-----------------2-1-0--------------------
G-------------------------------------------------

"For ME And My Tortured Soul!"
E-------------------------------------------------
A---0-2-3------------------2---------1------------
D-------------------------------------------------
G-------------------------------------------------

"Words Could Never Explain/I Know It Might Sound STrange But I..."
E--5-----------------------2---------------------------------1-
D--------------------------------------------------------------
D--------------------------------------------------------------
G--------------------------------------------------------------

"I Wish It Would Rain"
E-------------------------------------------------
A-------------------5-----------------------------
D-------------------------------------------------
G-------------------------------------------------

This Song is the greatest metal song in quite some time and those
of you who are viewing this and know of it, i salute you! love you annie
            
Submit corrections

comments powered by Disqus
↑ Back to top | Probot Bass for My Tortured Soul. Lyrics for acoustic guitar and electric guitar. Tablatures and chords are parodies/interpretations of the original songs. You may use it for private study, scholarship, research or language learning purposes only