>
 >
My Tortured Soul Live

My Tortured Soul Live Guitar Tabs

Probot - My Tortured Soul Live chords, tabs, tablatures, lyrics

Guitar lessons | Add/correct | Request | Top 50 tabs Artists:  A B C D E F G H I J K L M N O P Q R S T U V W X Y Z 0-9

My Tortured Soul Live Guitar Tabs – Probot

CD, Sheet music, Poster

Do you like My Tortured Soul Live? Share with your friends now
Tabs
Probot
"My Tortured Soul (Live)"
MTV2 Headbanger's Ball Volume 2

Sorry, guys, but this song uses two seven string (or at least baritone) guitars. If you 
only a regular guitar, I would fit it with heavier strings.
Tuning from low to high is as follows: A, E, A, D, g, b,(e).

b=bend
h=hammer on
p=pull off
/=slide down
*=harmonic

Intro- Guitar I
------------------------------------------------|
------------------------------------------------|
------------------------------------------------|
------------------------------------------------| x2
------------------------------------------------|
----------5-----------5-----------5-----3-------|
--0----4h5----00---4h5----0000-4h5----0----0-3--|

Intro- Guitar II
---------|
---------|
---------|
---------| x1
---------|
--0------|
--0------|

-----------------------------------------------|
-----------------------------------------------|
-----------------------------------------------|
-----------------------------------------------|
----------------------------------------5------|
----------------------------------------3----3-|
--00----------------------------------0----0-3-|


Riff 1- Guitar I and Guitar II
------------------------------------------------|
------------------------------------------------|
------------------------------------------------|
------------------------------------------------| x2
----------------------------------------5-------|
----------5-----------5-----------5-----3----3--|
--0----4h5----00---4h5----0000-4h5----0----0-3--|


Riff 2- Guitar I
------------------------------------------------|
------------------------------------------------|
------------------------------------------------|
------------------------------------------------| x2
--12--------14b---10-9-10---12-10---------------|
-----11---------------------------------10---3--|
-0--------0-----0---------0-----------0-10-0-3--|

Riff 2- Guitar II
------------------------------------------------|
------------------------------------------------|
------------------------------------------------|
------------------------------------------------| x2
----------------------------------------5-------|
----------5-----------5-----------5-----3----3--|
--0----4h5----00---4h5----0000-4h5----0----0-3--|


Riff 1 x4


Riff 3- Guitar I and Guitar II
--------------------------------------------|
--------------------------------------------|
--------------------------------------------|
-14-13-12-----------------14-13-12----------|
-12-11-10-12-15-12-10-----12-11-10-12-15-12-|
----------12-15-12-10--------------12-15-12-|
----------12-15-12-10--------------12-15-12-|

------------------------------------|
------------------------------------|
------------------------------------|
------------------------------------|
-14-13-12------------10101010-9---8-|
-12-11-10-12-15-12-14-8-8-8-8-7---6-|
----------12-15-12-14---------------|


Riff 2 x2

Riff 1 x4

Riff 3


Riff 4- Guitar I and Guitar II
----------------------------------------------|
----------------------------------------------|
----------------------------------------------|
----------------------------------------------| x2
----------------------------------------------|
-10-9-8-10-----10-9-8-10-----8-8h10-10-10h12--|
-----------12------------12-------------------|


Bridge- Guitar I
------------------------------------------------|
------------------------------------------------|
------------------------------------------------|
------------------------------------------------| x1
----------------------------------------5-------|
----------5-----------5-----------5-----3----3--|
--00---4h5----00---4h5----0000-4h5----0----0-3--|

------------------------------------------------|
------------------------------------------------|
------------------------------------------------|
------------------------------------------------| x1
--------------------------5-7-7-5-7-7---5-------|
----------5-----------5---3-5-5-3-5-5---3----3--|
--00---4h5----00---4h5----------------0----0-3--|

Bridge- Guitar II
--------------------------------|
--------------------------------|
--------------------------------|
--------------------------------| x1
--------------------------------|
--------------------------------|
--00----------00----------0000--|

------------------------------------------------|
------------------------------------------------|
------------------------------------------------|
------------------------------------------------| x1
--------------------------5-7-7-5-7-7---5-------|
--------------------------3-5-5-3-5-5---3----3--|
--00----------00----------------------0----0-3--|


Riff 1 x2

Riff 3 x2

Riff 4 x3


Riff 5- Guitar I and Guitar II
---------------|
---------------|
---------------|
----7-9---7-9--| x2
--7-----8------|
---------------|
---------------|


Riff 2 x4

At the very end, both guitars play this once:
---------------|
---------------|
---------------|
---------------|
----5----------|
----3----3-0-0-|
--0----0-3-0-0-|

END





Comments


Popular Probot tabs & chords
I Am The Warlock Bass Tabs
My Tortured Soul Bass Tabs
Shake Your Blood Bass Tabs
Big Sky Tabs
Centuries Of Sin Tabs
Centuries Of Sin 2 Tabs
Red War Tabs
Shake Your Blood 1 Tabs
Shake Your Blood 2 Tabs
Silent Spring Tabs


Song lyrics



↑ Back to top | Tablatures and chords are parodies/interpretations of the original songs. You may use it for private study, scholarship, research or language learning purposes only
© 2014 AZChords.com Contact us | Privacy policy | DMCA | Add/correct tabs | Request tabs | Top 50 tabs