» » »

Priestess, Lady Killer Tabs (ver.2)

Artists:  A B C D E F G H I J K L M N O P Q R S T U V W X Y Z # 

Lady Killer Tabs (ver.2)

Priestess Tabs
 Rating:
4/5 (4 votes)
Lady Killer lessons Tabs too difficult? Try these video lessons and learn fast
                (Guitar Tab for “Lady Killer”)
(By Priestess)
(From the Album “Prior to the Fire”)
This tab is made for computer use not to be printed 
So I advise placing it in Web layout format.
Gtr I (Eb Ab Db Gb Bb Eb) - 'N/A'
Gtr II (Eb Ab Db Gb Bb Eb) - 'N/A'

Q=135
4/4
(Intro) play this intro only once          *                                    
E---------------------------------------|---|---------------------------------|
B---------------------------------------|---|o-------------------------------o|
G---------------------------------------|---|---------------------------------|
D-9---------------------------------9-9-|-9-|---------------------------------|
A-7---------------------------------7-7-|-7-|0-------------------------------o|
e--0-0-0-0-0-0-0-0-0-0-0-0-0-0-0-0-0----|---|-0-0-0-0-0-0-0-0-0-0-0-0-0-0-0-0-|
  * let these chords ring 

Intro Riff 2 You can play the chords as slides or normal)
E-----------------------------------------------------|
Bo---------------------------------------------------o|
G-----------------------------------------------------|
D------------------12/10--9------10/12---------11-7-9-|
Ao----5-----10/9---10/8---7---10-8/-10---10/9---9-5-7o|
e-0-0-3-0-0-8-/7-0------0---0-8--------0-8-/7-0-------|

E-----------------------------------------------------|x4
B----------------------------------------------------o|
G-----------------------------------------------------|
D------------------12/10--9------10/12---------10-7-9-|
A-----5-----10/9---10/8---7---10-8/-10---10/9---8-5-7o|
e-0-0-3-0-0-8-/7-0------0---0-8--------0-8-/7-0-------|

Intro riff 3                                                                                   
E----------------------------------------------------------------------------------------------|
B----------------------------------------------------------------------------------------------|
G----------------------------------------------------------------------------------------------|
D----------------7/10---9----------------7/10---9----------------7/10---9------------------5-7-|
A----------------5/ 8---7----------------5/-8---7----------------5/-8---7----------------5-3-5-|
e-0--0-0--0--0-0------0---0--0-0--0--0-0------0---0--0-0--0--0-0------0---0--0-0--0--0-0-3-----|

Interlude to verse riff          
E---------------------------------|
B---------------------------------|
G---------------------------------|
D---------------------------------|
A---------------------------------|
e-0-0-0-0-0-0-0-0-0-0-0-0-0-0-0-0-|

(This is the part right before the verse riff 
Not sure what it is exactly but this sounds good.)   
E-------------|
B-------------|
G-19h20p19h20-|
D-------------|
A-------------|
e-------------|

Verse 1
E---------------------------------------------------------------|
B---------------------------------------------------------------|
G---------------------------------------------------------------|
D-----------------------------------------------7p6-------------|
A-2-------------------------2h7-2h7-----------------8p7h8p7/5---|
e-0-0-0-0-0-0-0-0-0-0-0-0-0---------0-0-0-0-0-0--------------h8-|

E------------------------------------------------|
B------------------------------------------------|
G------------------------------------------------|
D----------------------------------------7p6-----|
A--------------------2h7-2h7-----------------8p7-|
e1-1-1-1-1-1-1-1-1-1---------0-0-0-0-0-0---------|

E-----------------------------------------------------------------|
B-----------------------------------------------------------------|
G-----------------------------------------------------------------|
D-------------------------------------------------7p6-------------|
A-5h7-------------------------2h7-2h7-----------------8p7h8p7/5---|
e-----0-0-0-0-0-0-0-0-0-0-0-0---------0-0-0-0-0-0--------------h8-|

E------------------------------------------------|
B------------------------------------------------|
G------------------------------------------------|
D----------------------------------------7p6-----|
A--------------------2h7-2h7-----------------8p7-|
e1-1-1-1-1-1-1-1-1-1---------0-0-0-0-0-0---------|


Interlude
E-------------------|
B-------------------|
G-------------------|
D-------10-9----8---|
A-6-7-9-8--7-10-6-9-|
e-4-5-7------8----7-|

E---------------------------------------------------------------|
B---------------------------------------------------------------|
G---------------------------------------------------------------|
D-----------------------------------------------7p6-------------|
A-2-------------------------2h7-2h7-----------------8p7h8p7/5---|
e-0-0-0-0-0-0-0-0-0-0-0-0-0---------0-0-0-0-0-0--------------h8-|

E------------------------------------------------|
B------------------------------------------------|
G------------------------------------------------|
D----------------------------------------7p6-----|
A--------------------2h7-2h7-----------------8p7-|
e1-1-1-1-1-1-1-1-1-1---------0-0-0-0-0-0---------|

E-----------------------------------------------------------------|
B-----------------------------------------------------------------|
G-----------------------------------------------------------------|
D-------------------------------------------------7p6-------------|
A-5h7-------------------------2h7-2h7-----------------8p7h8p7/5---|
e-----0-0-0-0-0-0-0-0-0-0-0-0---------0-0-0-0-0-0--------------h8-|

E------------------------------------------------|
B------------------------------------------------|
G------------------------------------------------|
D----------------------------------------7p6-----|
A--------------------2h7-2h7-----------------8p7-|
e1-1-1-1-1-1-1-1-1-1---------0-0-0-0-0-0---------|

Interlude (Now we step into the fire)
E-------------------|
B-------------------|
G-------------------|
D-------10-9----8---|
A-6-7-9-8--7-10-6-9-|
e-4-5-7------8----7-|

Chorus 1                                          X4 Interlude 
E---------------------------------------------------|-------------------|
Bo-------------------------------------------------o|-------------------|
G---------------------------------------------------|-------------------|
D--7/10---9----------------7/10---9-----------------|---------------(6)-|
Ao-5/-8---7----------------5/-8---7----------------o|-----5/8-----------| 
e-------0---0--0-0--0--0-0------0---0--0-0--0--0-0--|-5-8-----10p8p7----|

Verse 2
E---------------------------------------------------------------|
B---------------------------------------------------------------|
G---------------------------------------------------------------|
D-----------------------------------------------7p6-------------|
A-2-------------------------2h7-2h7-----------------8p7h8p7/5---|
e-0-0-0-0-0-0-0-0-0-0-0-0-0---------0-0-0-0-0-0--------------h8-|

E----------------------------------------------------|
B----------------------------------------------------|
G----------------------------------------------------|
D--------------------------------------------7p6-----|
A------------------------2h7-2h7-----------------8p7-|
e1-1-1-1-1-1-1-1-1-1-1-1---------0-0-0-0-0-0---------|

E-----------------------------------------------------------------|
B-----------------------------------------------------------------|
G-----------------------------------------------------------------|
D-------------------------------------------------7p6-------------|
A-5h7-------------------------2h7-2h7-----------------8p7h8p7/5---|
e-----0-0-0-0-0-0-0-0-0-0-0-0---------0-0-0-0-0-0--------------h8-|

E----------------------------------------------------|
B----------------------------------------------------|
G----------------------------------------------------|
D--------------------------------------------7p6-----|
A------------------------2h7-2h7-----------------8p7-|
e1-1-1-1-1-1-1-1-1-1-1-1---------0-0-0-0-0-0---------|

E------------------------------------------------------------------|
B------------------------------------------------------------------|
G------------------------------------------------------------------|
D-------------------------------------------------7p6--------------|
A-5h7-------------------------2h7-2h7-----------------8p7h8p7/5----|
e-----0-0-0-0-0-0-0-0-0-0-0-0---------0-0-0-0-0-0--------------h8--|

E----------------------------------------------------|
B----------------------------------------------------|
G----------------------------------------------------|
D--------------------------------------------7p6-----|
A------------------------2h7-2h7-----------------8p7-|
e1-1-1-1-1-1-1-1-1-1-1-1---------0-0-0-0-0-0---------|

E-----------------------------------------------------------------|
B-----------------------------------------------------------------|
G-----------------------------------------------------------------|
D-------------------------------------------------7p6-------------|
A-5h7-------------------------2h7-2h7-----------------8p7h8p7/5---|
e-----0-0-0-0-0-0-0-0-0-0-0-0---------0-0-0-0-0-0--------------h8-|

E----------------------------------------------------|
B----------------------------------------------------|
G----------------------------------------------------|
D--------------------------------------------7p6-----|
A------------------------2h7-2h7-----------------8p7-|
e1-1-1-1-1-1-1-1-1-1-1-1---------0-0-0-0-0-0---------|


Interlude (Hear my vow and fear my vengeance)
E-------------------|
B-------------------|
G-------------------|
D-------10-9----8---|
A-6-7-9-8--7-10-6-9-|
e-4-5-7------8----7-|

Chorus 2                                          X4  
E---------------------------------------------------|-------|
Bo-------------------------------------------------o|-------|
G---------------------------------------------------|-------|
D--7/10---9----------------7/10---9-----------------|-------|
Ao-5/-8---7----------------5/-8---7----------------o|-----5-|
e-------0---0--0-0--0--0-0------0---0--0-0--0--0-0--|-5-8---|

Intro riff Again.
E-----------------------------------------------------|
B----------------------------------------------------o|
G-----------------------------------------------------|
D------------------12/10--9------10/12---------11-7-9-|
A-----5-----10/9---10/8---7---10-8/-10---10/9---9-5-7o|
e-0-0-3-0-0-8-/7-0------0---0-8--------0-8-/7-0-------|

E-----------------------------------------------------|x4
B----------------------------------------------------o|
G-----------------------------------------------------|
D------------------12/10--9------10/12---------10-7-9-|
A-----5-----10/9---10/8---7---10-8/-10---10/9---8-5-7o|
e-0-0-3-0-0-8-/7-0------0---0-8--------0-8-/7-0-------|


Solo riff (Not sure exactly how it goes but this is close)
|-------------------------------------------------------------|
|-------------------------------------------------------------|
|-------------------------------------------------------------|
|-----------------------------------------------------7p6-----|
|-2-5h7---------------------------------------------------8p7-|
|-0-----0-0-0-0-0-0-0-0-0-0-1-1-1-1-1-1-1-1-0-0-0-0-0---------|
  * chord is not always played

Chorus 3                                          X4 End 
E---------------------------------------------------|-------------------|
Bo-------------------------------------------------o|-------------------|
G---------------------------------------------------|-------------------|
D--7/10---9----------------7/10---9-----------------|---------------(6)-|
Ao-5/-8---7----------------5/-8---7----------------o|-----5-8-----------|
e-------0---0--0-0--0--0-0------0---0--0-0--0--0-0--|-5-8-----10p8p7----|

Lyrics 
(Verse 1)
Found the scissors with open blades
all her garments were burnt
recalling pictures of olden days
all these feelings return 
(Interlude then continues) 
If you're breathing you better pray
And in the shadows remain
I'll be stalking you night and day
Till you've shared all my pain

(Pre Chorus 1) 
Now we step into the fire

(Chorus 1) 
I swear, you will pay, lady killer
Beware, you will pay, lady killer

(Verse 2)
Bait the killer and lie awake
Till the morning unfolds
Now he's feeding on my mistakes
And the trail has run cold
All the violence that fills the world
Leaving nothing for shame
This is what some are capable of
Such things I have learned

(Pre Chorus 2)
Hear my vow and fear my vengeance

(Chorus 2 and 3)  
I swear, you will pay, lady killer
Beware, you will pay, lady killer

Tablature Legend
----------------
 h   - hammer-on
 p   - pull-off
 b   - bend
 pb  - pre-bend
 r   - bend release (if no number after the r, then release immediately)
 /\  - slide into or out of (from/to "nowhere")
 s   - legato slide
 S   - shift slide
  - natural harmonic
[n]  - artificial harmonic
n(n) - tapped harmonic
 ~   - vibrato
 tr  - trill
 T   - tap
 TP  - trem. picking
 PM  - palm muting
\n/  - tremolo bar dip; n = amount to dip
 \n  - tremolo bar down
 n/  - tremolo bar up
/n\  - tremolo bar inverted dip
 =   - hold bend; also acts as connecting device for hammers/pulls
 <>  - volume swell (louder/softer)
 x   - on rhythm slash represents muted slash
 o   - on rhythm slash represents single note slash
 ()  - Hold Note
Misc Legend
-----------
 |  - bar
||  - double bar
||o - repeat start
o|| - repeat end
*|  - double bar (ending)
 :  - bar (freetime)
 $  - Segno
 &  - Coda
Tempo markers -  = BPM(8/16=s8/s16), where s8 = swing 8ths, s16 = swing 16ths

Please take note that my strings are a little flat so the solo might not be quite right 
Or may have some slight problems but I’m sure I’m right for the most part. 
I will add solo in the future but this is the song without it. 
This tab is made for use on a computer and not to be printed out I advise using 
Web layout for best results  
            
Submit corrections

comments powered by Disqus
↑ Back to top | Priestess Tabs for Lady Killer. Lyrics for acoustic guitar and electric guitar. Tablatures and chords are parodies/interpretations of the original songs. You may use it for private study, scholarship, research or language learning purposes only