» » »

Praxis, Track Tabs (ver.1)

Artists:  A B C D E F G H I J K L M N O P Q R S T U V W X Y Z # 

Track Tabs (ver.1)

Praxis Tabs
 Rating:
4/5 (4 votes)
Track lessons Tabs too difficult? Try these video lessons and learn fast
1
                X-Mts: smtp



this is the seventh track on Transmutation
i don't know any of the names, so....
****As ALWAYS, No timing is represented here*****

E
B-------------------------10---10---------------------------------
G---------------------777----7----7--------------------777-6--6---
D------------11-11-11-------------------------11-11-11-------7--7-
A-------999-------------------------------999---------------------
E--777--------------------------------777-------------------------

E----------------------------|SECOND TIME ONLY------------
B---------------000----------|----------------------------
G-----------222-----0----0---|----------------------------
D------000------------4----4-|-------000--444-555-444-000-
A----------------------------|----------------------------
E--333-----------------------|--333-----------------------

As usual this is from memory, and i am unsure about two things, so i'll
post a correction if necessary.

------- End of Forwarded Message
            
Submit corrections

comments powered by Disqus
↑ Back to top | Praxis Tabs for Track. Lyrics for acoustic guitar and electric guitar. 1 Tablatures and chords are parodies/interpretations of the original songs. You may use it for private study, scholarship, research or language learning purposes only