» » »

Power Quest, Far Away Bass tabs (ver.1)

Artists:  A B C D E F G H I J K L M N O P Q R S T U V W X Y Z # 

Far Away Bass tabs (ver.1)

Power Quest Tabs
 Rating:
4/5 (4 votes)
Far Away lessons Tabs too difficult? Try these video lessons and learn fast
1
                
FAR AWAY (Bassline)
As recorded by Power Quest
(From the 2002 Album WINGS OF FOREVER)

	

Words and Music by S. Williams
Arranged by Power Quest

Gtr I (E A D G) - 'Untitled'

   Intro
    Q=197
   4/4
    Gtr I
    W          W          W          W
||-----------|----------|----------|------|
||o----------|----------|----------|------|
||o----------|----------|----------|------|
||-----------|----------|----------|------|


  W          W          W          W
|----------|----------|----------|-------||
|----------|----------|----------|------o||
|----------|----------|----------|------o||
|----------|----------|----------|-------||


    W          W          W          W
||-----------|----------|----------|------|
||o----------|----------|----------|------|
||o----------|----------|-3--------|-5----|
||--0--------|-3--------|----------|------|


  W          W          W          +W
|----------|----------|----------|---------||
|----------|----------|----------|--------o||
|-7--------|-3--------|-5--------|-(5)----o||
|----------|----------|----------|---------||


  W          +W
|----------|--------||
|----------|--------||
|-3--------|-(3)----||
|----------|--------||


   Verse
    E S S S S E S S S S S S S S
||------------------------------|
||o-----------------------------|
||o-7-7-7-7-7-7-7-7-7-7-7-7-7-7-|
||------------------------------|


  E S S S S E S S S S E S S   E S S S S E S S S S S S S S
|---------------------------|-----------------------------|
|---------------------------|-----------------------------|
|-7-7-7-7-7-7-7-7-7-7-7-7-7-|-5-5-5-5-5-5-5-5-5-5-5-5-5-5-|
|---------------------------|-----------------------------|


  E S S S S E S S S S E S S   E E E E E E E E
|---------------------------|-----------------|
|---------------------------|-----------------|
|-5-5-5-5-5-5-5-5-5-5-5-5-5-|-0-0-0-0-0-0-0-0-|
|---------------------------|-----------------|


  E E E E E E E E   E E E E E E E E   E E E E E E E E
|-----------------|-----------------|-------------------||
|-----------------|-----------------|------------------o||
|-0-0-0-0-0-0-0-0-|-3-3-3-3-3-3-3-3-|-5-5-5-5-5-5-5-5--o||
|-----------------|-----------------|-------------------||


    W          W          W          W
||-----------|----------|----------|------|
||o----------|----------|----------|------|
||o----------|----------|-3--------|-5----|
||--0--------|-3--------|----------|------|


  W          W          W          +W
|----------|----------|----------|---------||
|----------|----------|----------|--------o||
|----------|-3--------|-5--------|-(5)----o||
|-0--------|----------|----------|---------||


   Verse 2
    $
    S S S S E S S S S S S S S E   S S S S E S S S S E S S E
||------------------------------|---------------------------|
||o-----------------------------|---------------------------|
||o-7-7-7-7-7-7-7-7-7-7-7-7-7-7-|-7-7-7-7-7-7-7-7-7-7-7-7-5-|
||------------------------------|---------------------------|


  S S S S E S S S S S S S S S S
|---------------------------------|
|---------------------------------|
|-5-5-5-5-5-5-5-5-5-5-5-5-5-5-5---|
|---------------------------------|


  E S S S S E S S S S E S S   E E E E E E E E
|---------------------------|-----------------|
|---------------------------|-----------------|
|-5-5-5-5-5-5-5-5-5-5-5-5-5-|-0-0-0-0-0-0-0-0-|
|---------------------------|-----------------|


  E E E E E E E E   E E E E E E E E   E E E E E E E E
|-----------------|-----------------|-------------------||
|-----------------|-----------------|------------------o||
|-0-0-0-0-0-0-0-0-|-3-3-3-3-3-3-3-3-|-5-5-5-5-5-5-5-5--o||
|-----------------|-----------------|-------------------||


 Pre-Chorus
  E S S S S S S S S S S S S S S   E S S S S S S S S S S S S S S
|-------------------------------|-------------------------------|
|-------------------------------|-------------------------------|
|-3-3-3-3-3-3-3-3-3-3-3-3-3-3-3-|-------------------------------|
|-------------------------------|-3-3-3-3-3-3-3-3-3-3-3-3-3-3-3-|


  E S S S S S S S S S S S S S S   E S S S S S S S S S S S S S S
|-------------------------------|-------------------------------|
|-------------------------------|-------------------------------|
|-5-5-5-5-5-5-5-5-5-5-5-5-5-5-5-|-7-7-7-7-7-7-7-7-7-7-7-7-7-7-7-|
|-------------------------------|-------------------------------|


  E S S S S S S S S S S S S S S   E S S S S S S S S S S S S S S
|-------------------------------|-------------------------------|
|-------------------------------|-------------------------------|
|-3-3-3-3-3-3-3-3-3-3-3-3-3-3-3-|-------------------------------|
|-------------------------------|-3-3-3-3-3-3-3-3-3-3-3-3-3-3-3-|


  E S S S S S S S S S S S S S S   E S S E S S E E S S S S
|-------------------------------|--------------------------||
|-------------------------------|--------------------------||
|-7-7-7-7-7-7-7-7-7-7-7-7-7-7-7-|-5-5-5-5-5-5-5-5-5-5-5-5--||
|-------------------------------|--------------------------||


   Chorus
    E E E E E E E E   E E E E E E E E   E E E E E E E E   E E E E E E E E
||------------------|-----------------|-----------------|------------------|
||o-----------------|-----------------|-----------------|------------------|
||o-----------------|-5-5-5-5-5-5-5-5-|-----------------|-3-3-3-3-3-3-3-3--|
||--3-3-3-3-3-3-3-3-|-----------------|-0-0-0-0-0-0-3-3-|------------------|


  E E E E E E E E   E E E E E E E E   E E E E E E E E   E E E E E E E E
|-----------------|-----------------|-----------------|------------------||
|-----------------|-----------------|-----------------|-----------------o||
|-----------------|-----------------|-5-5-5-5-5-5-5-5-|-5-5-5-5-5-5-5-5-o||
|-3-3-3-3-3-3-3-3-|-3-3-3-3-3-3-3-3-|-----------------|------------------||


To CoD.S. al Coda       &
  W          +W           W
|----------|------------|------||
|----------|------------|------||
|-3--------|-(3)--------|-3----||
|----------|------------|------||


   Interlude
    E E E E E E E E   E E E E E E E E   E E E E E E E E   E E E E E E E E
||------------------|-----------------|-----------------|------------------|
||o-----------------|-----------------|-----------------|------------------|
||o-----------------|-3-3-3-3-3-3-3-3-|-5-5-5-5-5-5-5-5-|-2-2-2-2-2-2-2-2--|
||--3-3-3-3-3-3-3-3-|-----------------|-----------------|------------------|


  E E E E E E E E   E E E E E E E E   E E E E E E E E   E E E E E E E E
|-----------------|-----------------|-----------------|------------------||
|-----------------|-----------------|-----------------|-----------------o||
|-3-3-3-3-3-3-3-3-|-0-0-0-0-0-0-0-0-|-----------------|-5-5-5-5-5-5-5-5-o||
|-----------------|-----------------|-3-3-3-3-3-3-3-3-|------------------||


  W          +W
|----------|--------|
|----------|--------|
|-3--------|-(3)----|
|----------|--------|


   Solo - Adam Bickers
    E S S S S E S S S S S S S S
||------------------------------|
||o-----------------------------|
||o-7-7-7-7-7-7-7-7-7-7-7-7-7-7-|
||------------------------------|


  E S S S S E S S S S E S S   E S S S S E S S S S S S S S
|---------------------------|-----------------------------|
|---------------------------|-----------------------------|
|-7-7-7-7-7-7-7-7-7-7-7-7-7-|-5-5-5-5-5-5-5-5-5-5-5-5-5-5-|
|---------------------------|-----------------------------|


  E S S S S E S S S S E S S   E E E E E E E E
|---------------------------|-----------------|
|---------------------------|-----------------|
|-5-5-5-5-5-5-5-5-5-5-5-5-5-|-0-0-0-0-0-0-0-0-|
|---------------------------|-----------------|


  E E E E E E E E   E E E E E E E E   E E E E E E E E
|-----------------|-----------------|-------------------||
|-----------------|-----------------|------------------o||
|-0-0-0-0-0-0-0-0-|-3-3-3-3-3-3-3-3-|-5-5-5-5-5-5-5-5--o||
|-----------------|-----------------|-------------------||


 Solo - Steve Williams
  E S S S S S S S S S S S S S S
|-------------------------------|
|-------------------------------|
|-3-3-3-3-3-3-3-3-3-3-3-3-3-3-3-|
|-------------------------------|


  E S S S S S S S S S S S S S S   E S S S S S S S S S S S S S S
|-------------------------------|-------------------------------|
|-------------------------------|-------------------------------|
|-------------------------------|-5-5-5-5-5-5-5-5-5-5-5-5-5-5-5-|
|-3-3-3-3-3-3-3-3-3-3-3-3-3-3-3-|-------------------------------|


  E S S S S S S S S S S S S S S
|-------------------------------|
|-------------------------------|
|-7-7-7-7-7-7-7-7-7-7-7-7-7-7-7-|
|-------------------------------|


  E S S S S S S S S S S S S S S   E S S S S S S S S S S S S S S
|-------------------------------|-------------------------------|
|-------------------------------|-------------------------------|
|-3-3-3-3-3-3-3-3-3-3-3-3-3-3-3-|-------------------------------|
|-------------------------------|-3-3-3-3-3-3-3-3-3-3-3-3-3-3-3-|


  E S S S S S S S S S S S S S S   E S S E S S E E S S S S
|-------------------------------|--------------------------||
|-------------------------------|--------------------------||
|-7-7-7-7-7-7-7-7-7-7-7-7-7-7-7-|-5-5-5-5-5-5-5-5-5-5-5-5--||
|-------------------------------|--------------------------||


   Solo - Sam Totman
    E E E E E E E E   E E E E E E E E   E E E E E E E E   E E E E E E E E
||------------------|-----------------|-----------------|------------------|
||o-----------------|-----------------|-----------------|------------------|
||o-----------------|-5-5-5-5-5-5-5-5-|-----------------|-3-3-3-3-3-3-3-3--|
||--3-3-3-3-3-3-3-3-|-----------------|-0-0-0-0-0-0-3-3-|------------------|


  E E E E E E E E   E E E E E E E E
|-----------------|-----------------|
|-----------------|-----------------|
|-----------------|-----------------|
|-3-3-3-3-3-3-3-3-|-3-3-3-3-3-3-3-3-|


  E E E E E E E E   E S S S S S S S S S S S S S S
|-----------------|----------------------------------||
|-----------------|---------------------------------o||
|-5-5-5-5-5-5-5-5-|-5-5-5-5-5-5-5-5-5-5-5-5-5-5-5---o||
|-----------------|----------------------------------||


 Pre-Chorus
  E S S S S S S S S S S S S S S   E S S S S S S S S S S S S S S
|-------------------------------|-------------------------------|
|-------------------------------|-------------------------------|
|-3-3-3-3-3-3-3-3-3-3-3-3-3-3-3-|-------------------------------|
|-------------------------------|-3-3-3-3-3-3-3-3-3-3-3-3-3-3-3-|


  E S S S S S S S S S S S S S S   E S S S S S S S S S S S S S S
|-------------------------------|-------------------------------|
|-------------------------------|-------------------------------|
|-5-5-5-5-5-5-5-5-5-5-5-5-5-5-5-|-7-7-7-7-7-7-7-7-7-7-7-7-7-7-7-|
|-------------------------------|-------------------------------|


  E S S S S S S S S S S S S S S   E S S S S S S S S S S S S S S
|-------------------------------|-------------------------------|
|-------------------------------|-------------------------------|
|-3-3-3-3-3-3-3-3-3-3-3-3-3-3-3-|-------------------------------|
|-------------------------------|-3-3-3-3-3-3-3-3-3-3-3-3-3-3-3-|


  E S S S S S S S S S S S S S S   E S S E S S E E S S S S
|-------------------------------|--------------------------|
|-------------------------------|--------------------------|
|-7-7-7-7-7-7-7-7-7-7-7-7-7-7-7-|-5-5-5-5-5-5-5-5-5-5-5-5--|
|-------------------------------|--------------------------|


   Out-Chorus
    E E E E E E E E   E E E E E E E E   E E E E E E E E   E E E E E E E E
||------------------|-----------------|-----------------|------------------|
||o-----------------|-----------------|-----------------|------------------|
||o-----------------|-5-5-5-5-5-5-5-5-|-----------------|-3-3-3-3-3-3-3-3--|
||--3-3-3-3-3-3-3-3-|-----------------|-0-0-0-0-0-0-3-3-|------------------|


  1.
  E E E E E E E E   E E E E E E E E   E E E E E E E E   E E E E E E E E
|-----------------|-----------------|-----------------|------------------||
|-----------------|-----------------|-----------------|-----------------o||
|-----------------|-----------------|-5-5-5-5-5-5-5-5-|-5-5-5-5-5-5-5-5-o||
|-3-3-3-3-3-3-3-3-|-3-3-3-3-3-3-3-3-|-----------------|------------------||


  2.
  E E E E E E E E   E E E E E E E E
|-----------------|-----------------|
|-----------------|-----------------|
|-----------------|-3-3-3-3-3-3-3-3-|
|-3-3-3-3-3-3-3-3-|-----------------|


  E E E E E E E E   E S S S S S S S S S S S S S S
|-----------------|---------------------------------|
|-----------------|---------------------------------|
|-5-5-5-5-5-5-5-5-|-5-5-5-5-5-5-5-5-5-5-5-5-5-5-5---|
|-----------------|---------------------------------|


  E E E E E E E E   E E E E E E E E   Q.   Q.   Q    W
|-----------------|-----------------|--------------|------*|
|-----------------|-----------------|--------------|------*|
|-3-3-3-3-3-3-3-3-|-3-3-3-3-3-3-3-3-|--------------|------*|
|-----------------|-----------------|-3----3----3--|-3----*|



Duration Legend
---------------
W - whole; H - half; Q - quarter; E - 8th; S - 16th; T - 32nd; X - 64th; a - acciaccatura
+ - note tied to previous; . - note dotted; .. - note double dotted
Uncapitalized letters represent notes that are staccato (1/2 duration)
Irregular groupings are notated above the duration line
Duration letters will always appear directly above the note/fret number it represents the
duration for.  Duration letters with no fret number below them represent rests.  Multi-
bar rests are notated in the form Wxn, where n is the number of bars to rest for.  Low
melody durations appear below the staff

Tablature Legend
----------------
 h   - hammer-on
 p   - pull-off
 b   - bend
 pb  - pre-bend
 r   - bend release (if no number after the r, then release immediately)
 /\  - slide into or out of (from/to "nowhere")
 s   - legato slide
 S   - shift slide
 - natural harmonic
[n]  - artificial harmonic
n(n) - tapped harmonic
 ~   - vibrato
 tr  - trill
 T   - tap
 TP  - trem. picking
 PM  - palm muting
\n/  - tremolo bar dip; n = amount to dip
 \n  - tremolo bar down
 n/  - tremolo bar up
/n\  - tremolo bar inverted dip
 =   - hold bend; also acts as connecting device for hammers/pulls
 <> - volume swell (louder/softer)
 x   - on rhythm slash represents muted slash
 o   - on rhythm slash represents single note slash

Misc Legend
-----------
 |  - bar
||  - double bar
||o - repeat start
o|| - repeat end
*|  - double bar (ending)
 :  - bar (freetime)
 $  - Segno
 &  - Coda
Tempo markers -  = BPM(8/16=s8/s16), where s8 = swing 8ths, s16 = swing 16ths
            
Submit corrections

comments powered by Disqus
↑ Back to top | Power Quest Bass for Far Away. Lyrics for acoustic guitar and electric guitar. 1 Tablatures and chords are parodies/interpretations of the original songs. You may use it for private study, scholarship, research or language learning purposes only