>
 >
Far Away

Far Away Guitar Tabs

Power Quest - Far Away chords, tabs, tablatures, lyrics

Guitar lessons | Add/correct | Request | Top 50 tabs Artists:  A B C D E F G H I J K L M N O P Q R S T U V W X Y Z 0-9

Far Away Guitar Tabs – Power Quest

CD, Sheet music, Poster

Do you like Far Away? Share with your friends now
Bass TabsChordsTabsUkulele

FAR AWAY
As recorded by Power Quest
(From the 2002 Album WINGS OF FOREVER)

	

Words and Music by S. Williams
Arranged by Power Quest

Gtr I (E A D G B E) - 'Sam Totman'
Gtr II (E A D G B E) - 'Adam Bickers'
Gtr III (E A D G B E) - 'Steve Williams'
Gtr IV (E A D G B E) - 'Alessio Garavello'
Gtr V (E A D G B E) - 'Sam harmony'

 Intro
  Q=197
  N.C.
 4/4
  Gtr III
  H    H      H    Q  Q    H    H      H    Q  Q
|-7---------|------------|-----------|------------|
|------8----|-7----7--7--|-8----5----|---------5--|
|-----------|------------|-----------|-5----7-----|
|-----------|------------|-----------|------------|
|-----------|------------|-----------|------------|
|-----------|------------|-----------|------------|


                          ~~~~~~~~~~~~~~~
  H    H      H    H      W          +E  E H.
|-----------|-7---------|----------|-------------|
|------8----|------8----|-7--------|-(7)---------|
|-7---------|-----------|----------|-------------|
|-----------|-----------|----------|-------------|
|-----------|-----------|----------|-------------|
|-----------|-----------|----------|-------------|


  H    H      H    Q  Q    H    H      H    H
|-----------|------------|-----------|-----------|
|-8----8----|-7----7--7--|-8----5----|------5----|
|-----------|------------|-----------|-5---------|
|-----------|------------|-----------|-----------|
|-----------|------------|-----------|-----------|
|-----------|------------|-----------|-----------|


                           ~~~~~~~~~~~~~~~~
  H    H      H    H       W           +E  E H.
|-----------|-7---------|-----------|--------------||
|------8----|------8----|-10--------|-(10)---------||
|-7---------|-----------|-----------|--------------||
|-----------|-----------|-----------|--------------||
|-----------|-----------|-----------|--------------||
|-----------|-----------|-----------|--------------||


    E5                        G5
    Gtrs I, II
     W                         W
||--------------------------|-------------------------|
||o-------------------------|-------------------------|
||--------------------------|-------------------------|
||---2----------------------|--5----------------------|
||o--2----------------------|--5----------------------|
||---0----------------------|--3----------------------|
|
|   Gtr III
|    E  E  E  E  E  E  E  E    E  E  E  E  E  E  E  E
||--------------------------|-------10-12-10----------|
||o-12-10-12-13-12-10----10-|-12-13----------13-12-10-|
||--------------------12----|-------------------------|
||--------------------------|-------------------------|
||o-------------------------|-------------------------|
||--------------------------|-------------------------|


  C5                       D5
   W                        W
|------------------------|-------------------------|
|------------------------|-------------------------|
|--5---------------------|--7----------------------|
|--5---------------------|--7----------------------|
|--3---------------------|--5----------------------|
|------------------------|-------------------------|
|
|  E  E  E  E  E  E  E E    E E  E  E  E  E  E  E
|-12-10------------------|-------------------------|
|-------13-12-10---------|------------10-----------|
|----------------12-11-9-|----9-11-12----12-11-----|
|------------------------|-12------------------12--|
|------------------------|-------------------------|
|------------------------|-------------------------|


  E5                       C5
  W                         W
|------------------------|-------------------------|
|------------------------|-------------------------|
|-9----------------------|--5----------------------|
|-9----------------------|--5----------------------|
|-7----------------------|--3----------------------|
|------------------------|-------------------------|
|
| E  E  E  E  E  E  E  E    E  E  E  E  E  E  E  E
|------------------------|-12-10-------------------|
|---------10-12-10-------|-------13-12-10----------|
|-9-11-12----------12-11-|----------------12-11-12-|
|------------------------|-------------------------|
|------------------------|-------------------------|
|------------------------|-------------------------|


  D5
   W                   W
|-------------------|----------------------------||
|-------------------|---------------------------o||
|--7----------------|--7-------------------------||
|--7----------------|--7-------------------------||
|--5----------------|--5------------------------o||
|-------------------|----------------------------||
|
|  H.       S  S  E    S  S  E S  S E  E E  Q
|-------------------|----------------------------||
|-------------------|---------------------------o||
|-14-------12h14p12-|-11h12p11-9h11p9----9-11----||
|-------------------|-----------------12---------||
|-------------------|---------------------------o||
|-------------------|----------------------------||


  C5
   W            E  S S S S E  H
|-----------|-----------------------||
|-----------|-----------------------||
|--5--------|-----------------------||
|--5--------|-----------------------||
|--3--------|-----------------------||
|-----------|---x--x-x-x-x-x-20\----||
|
|  W            W
|-----------|-----------------------||
|-----------|--12-------------------||
|-12--------|-(12)------------------||
|-----------|-----------------------||
|-----------|-----------------------||
|-----------|-----------------------||


   Verse
    E5
      PM----|   PM------------|
    E S S S S E S S S S S S S S
||------------------------------|
||o-----------------------------|
||------------------------------|
||--9---------9-----------------|
||o-7---------7-----------------|
||----0-0-0-0---0-0-0-0-0-0-0-0-|
|
|   W
||--7---------------------------|
||o-8---------------------------|
||--9---------------------------|
||------------------------------|
||o-----------------------------|
||------------------------------|


                                D5
      PM----|   PM----|   PM|     PM----|   PM------------|
   E  S S S S E S S S S E S S   E S S S S E S S S S S S S S
|-----------------------------|-----------------------------|
|-----------------------------|-----------------------------|
|-----------------------------|-----------------------------|
|-10----------9---------7-----|-7---------7-----------------|
|--7----------7---------7-----|-5-5-5-5-5-5-5-5-5-5-5-5-5-5-|
|-----0-0-0-0---0-0-0-0---0-0-|-----------------------------|
|
| +W                            W
|-(7)-------------------------|-5---------------------------|
|-(8)-------------------------|-8---------------------------|
|-(9)-------------------------|-7---------------------------|
|-----------------------------|-----------------------------|
|-----------------------------|-----------------------------|
|-----------------------------|-----------------------------|


                              A5                      C5         D5
      PM|     PM----|   PM|
   E  S S E E S S S S E S S   W          +W           W          W
|---------------------------|----------|------------|----------|-------||
|---------------------------|----------|------------|----------|------o||
|---------------------------|-2--------|-(2)--------|-5--------|-7-----||
|--7------5-7---------7-----|-2--------|-(2)--------|-5--------|-7-----||
|--5--5-5-5-5-5-5-5-5-5-5-5-|-0--------|-(0)--------|-3--------|-5----o||
|---------------------------|----------|------------|----------|-------||
|
|  W                          W          +W           W          W
|-(5)-----------------------|-8--------|-(8)--------|-3--------|-5-----||
|--7------------------------|-5--------|-(5)--------|-5--------|-7----o||
|-(7)-----------------------|-5--------|-(5)--------|-5--------|-7-----||
|---------------------------|----------|------------|----------|-------||
|---------------------------|----------|------------|----------|------o||
|---------------------------|----------|------------|----------|-------||


    E5                        G5
     W                         W
||--------------------------|-------------------------|
||o-------------------------|-------------------------|
||--------------------------|-------------------------|
||---2----------------------|--5----------------------|
||o--2----------------------|--5----------------------|
||---0----------------------|--3----------------------|
|
|    E  E  E  E  E  E  E  E    E  E  E  E  E  E  E  E
||--------------------------|-------10-12-10----------|
||o-12-10-12-13-12-10----10-|-12-13----------13-12-10-|
||--------------------12----|-------------------------|
||--------------------------|-------------------------|
||o-------------------------|-------------------------|
||--------------------------|-------------------------|


  C5                       D5
   W                        W
|------------------------|-------------------------|
|------------------------|-------------------------|
|--5---------------------|--7----------------------|
|--5---------------------|--7----------------------|
|--3---------------------|--5----------------------|
|------------------------|-------------------------|
|
|  E  E  E  E  E  E  E E    E E  E  E  E  E  E  E
|-12-10------------------|-------------------------|
|-------13-12-10---------|------------10-----------|
|----------------12-11-9-|----9-11-12----12-11-----|
|------------------------|-12------------------12--|
|------------------------|-------------------------|
|------------------------|-------------------------|


  1.
  E5                       C5
  W                         W
|------------------------|-------------------------|
|------------------------|-------------------------|
|------------------------|--5----------------------|
|-2----------------------|--5----------------------|
|-2----------------------|--3----------------------|
|-0----------------------|-------------------------|
|
| E  E  E  E  E  E  E  E    E  E  E  E  E  E  E  E
|------------------------|-12-10-------------------|
|---------10-12-10-------|-------13-12-10----------|
|-9-11-12----------12-11-|----------------12-11-12-|
|------------------------|-------------------------|
|------------------------|-------------------------|
|------------------------|-------------------------|


  D5
   W                   Q       Q       Q    Q
|-------------------|-----------------------------||
|-------------------|----------------------------o||
|--7----------------|--7-------7-------7----7\----||
|--7----------------|--7-------7-------7----7\----||
|--5----------------|--5-------5-------5----5\---o||
|-------------------|-----------------------------||
|
|  H.       S  S  E    S  S  E S  S E  E E  Q
|-------------------|-----------------------------||
|-------------------|----------------------------o||
|-14-------12h14p12-|-11h12p11-9h11p9----9-11-----||
|-------------------|-----------------12----------||
|-------------------|----------------------------o||
|-------------------|-----------------------------||


  2.
  E5                       C5                        D5
  W                         W                         W           +W
|------------------------|-------------------------|-----------|---------||
|------------------------|-------------------------|-----------|---------||
|-9----------------------|--5----------------------|--7--------|--(7)----||
|-9----------------------|--5----------------------|--7--------|--(7)----||
|-7----------------------|--3----------------------|--5--------|--(5)----||
|------------------------|-------------------------|-----------|---------||
|
| E  E  E  E  E  E  E  E    E  E  E  E  E  E  E  E    W           +W
|------------------------|-12-10-------------------|-----------|---------||
|---------10-12-10-------|-------13-12-10----------|-----------|---------||
|-9-11-12----------12-11-|----------------12-11-12-|-14--------|-(14)----||
|------------------------|-------------------------|-----------|---------||
|------------------------|-------------------------|-----------|---------||
|------------------------|-------------------------|-----------|---------||


   Verse 2
    $
    E5
      PM----|   PM------------|
    E S S S S E S S S S S S S S
||------------------------------|
||o-----------------------------|
||------------------------------|
||--9---------9-----------------|
||o-7---------7-----------------|
||----0-0-0-0---0-0-0-0-0-0-0-0-|
|
|   W
||--7---------------------------|
||o-8---------------------------|
||--9---------------------------|
||------------------------------|
||o-----------------------------|
||------------------------------|


                                D5
      PM----|   PM----|   PM|     PM----|   PM------------|
   E  S S S S E S S S S E S S   E S S S S E S S S S S S S S
|-----------------------------|-----------------------------|
|-----------------------------|-----------------------------|
|-----------------------------|-----------------------------|
|-10----------9---------7-----|-7---------7-----------------|
|--7----------7---------7-----|-5-5-5-5-5-5-5-5-5-5-5-5-5-5-|
|-----0-0-0-0---0-0-0-0---0-0-|-----------------------------|
|
| +W                            W
|-(7)-------------------------|-5---------------------------|
|-(8)-------------------------|-8---------------------------|
|-(9)-------------------------|-7---------------------------|
|-----------------------------|-----------------------------|
|-----------------------------|-----------------------------|
|-----------------------------|-----------------------------|


                           A5                               C5         D5
      PM|            PM|
   E  S S E E +Q   E S S   H.      +E  E    H.      +E  E   W          W
|------------------------|---------------|----------------|----------|-------||
|------------------------|---------------|----------------|----------|------o||
|------------------------|-2-------(2)-x-|--2-------(2)-x-|-5--------|-7-----||
|--7------5-7-(7)--7-----|-2-------(2)-x-|--2-------(2)-x-|-5--------|-7-----||
|--5--5-5-5-5-(5)--5-5-5-|-0-------(0)-x-|--0-------(0)-x-|-3--------|-5----o||
|------------------------|---------------|----------------|----------|-------||
|
|  W                       W               +W               W          W
|-(5)--------------------|-8-------------|-(8)------------|-3--------|-5-----||
|--7---------------------|-5-------------|-(5)------------|-5--------|-7----o||
|-(7)--------------------|-5-------------|-(5)------------|-5--------|-7-----||
|------------------------|---------------|----------------|----------|-------||
|------------------------|---------------|----------------|----------|------o||
|------------------------|---------------|----------------|----------|-------||


 Pre-Chorus
  C5               G5               D5               E5
  W                W                W                W
|----------------|----------------|----------------|------|
|----------------|----------------|----------------|------|
|-5--------------|----------------|-7--------------|-9----|
|-5--------------|-5--------------|-7--------------|-9----|
|-3--------------|-5--------------|-5--------------|-7----|
|----------------|-3--------------|----------------|------|
|
| H     Q    Q     H     Q    Q     H     Q    Q     W
|-8----(8)--(8)--|-7-----5----7---|-5-----3----5---|-7----|
|-8-----7----8---|-8----(8)--(8)--|-7----(7)--(7)--|-8----|
|-9----(9)--(9)--|-7----(7)--(7)--|-7----(7)--(7)--|-9----|
|----------------|----------------|----------------|------|
|----------------|----------------|----------------|------|
|----------------|----------------|----------------|------|


  C5               G5               E5               D5
  W                W                W                W
|----------------|----------------|----------------|-------------||
|----------------|----------------|----------------|-------------||
|-5--------------|----------------|-9--------------|-7-----------||
|-5--------------|-5--------------|-9--------------|-7-----------||
|-3--------------|-5--------------|-7--------------|-5-----------||
|----------------|-3--------------|----------------|-------------||
|
| H     Q    Q     H     Q    Q     H     Q    Q     H     H
|-8----(8)--(8)--|-7-----5----7---|-7-----3----5---|-5----(5)----||
|-8-----7----8---|-8----(8)--(8)--|-8----(8)--(8)--|-8-----7-----||
|-9----(9)--(9)--|-7----(7)--(7)--|-9----(9)--(9)--|-7----(7)----||
|----------------|----------------|----------------|-------------||
|----------------|----------------|----------------|-------------||
|----------------|----------------|----------------|-------------||


   Chorus
    G5          D5          E5          C5
    W           W           W           W
||------------|-----------|-----------|-----------|
||o-----------|-----------|-----------|-----------|
||------------|-7---------|-----------|-5---------|
||--5---------|-7---------|-2---------|-5---------|
||o-5---------|-5---------|-2---------|-3---------|
||--3---------|-----------|-0---------|-----------|
|
|   H    H      H    H      H    H      H    H
||-------7----|-5---------|-7---------|-8----8----|
||o-8----8----|-7----7----|-8----8----|-8----8----|
||--7----7----|-7----7----|-9----9----|-9----9----|
||------------|-----------|-----------|-----------|
||o-----------|-----------|-----------|-----------|
||------------|-----------|-----------|-----------|


  G5                        D5
  W           +W            W           +W
|-----------|-------------|-----------|---------||
|-----------|-------------|-----------|--------o||
|-----------|-------------|-7---------|-(7)-----||
|-5---------|-(5)---------|-7---------|-(7)-----||
|-5---------|-(5)---------|-5---------|-(5)----o||
|-3---------|-(3)---------|-----------|---------||
|
| H    H       H     H      H    H       W
|-7----7----|--7----------|-5---------|-10------||
|-8----8----|--8-----8----|-7----7----|--7-----o||
|-7----7----|--7-----7----|-7----7----|--7------||
|-----------|-------------|-----------|---------||
|-----------|-------------|-----------|--------o||
|-----------|-------------|-----------|---------||


To Coda                D.S. al Coda   &
  C5                                  C5
  W           E  S S E E E S S  Q      W
|----------|------------------------|--------||
|----------|------------------------|--------||
|-5--------|------------------------|--5-----||
|-5--------|------------------------|--5-----||
|-3--------|------------------------|--3-----||
|----------|--x--x-x-x-x-x-x-x-20\--|--------||
|
| W           W                        W
|-8--------|--7---------------------|--7-----||
|-8--------|-(8)--------------------|-(8)----||
|-9--------|-(9)--------------------|-(9)----||
|----------|------------------------|--------||
|----------|------------------------|--------||
|----------|------------------------|--------||


 Interlude
  G5                     C5
   PM-|    PM---|    PM------|    PM---|    PM-
   E  E E  E  E E  E E    E  E E  E  E E  E E
|----------------------|----------------------|
|----------------------|----------------------|
|----------------------|----------------------|
|----------------------|-------5----------5---|
|-------5----------5---|--3--3-3--3--3-3--3-3-|
|--3--3-3--3--3-3--3-3-|----------------------|
|
|  Q.      Q.      Q      Q.      Q.      Q
|----------------------|----------------------|
|-12------13------15---|-15------13------12---|
|----------------------|----------------------|
|----------------------|----------------------|
|----------------------|----------------------|
|----------------------|----------------------|


  D5                     B5
 -----|    PM---|    PM------|   PM--|    PM
   E  E E  E  E E  E E    E  E E E E E  E E
|----------------------|--------------------|
|----------------------|--------------------|
|----------------------|--------------------|
|-------7----------7---|-------4--------4---|
|--5--5-5--5--5-5--5-5-|--2--2-2-2-2-2--2-2-|
|----------------------|--------------------|
|
|  Q.      Q.      Q      H.            Q
|----------------------|--------------------|
|---------12------13---|-12-----------------|
|-14-------------------|---------------14---|
|----------------------|--------------------|
|----------------------|--------------------|
|----------------------|--------------------|


  C5                     A5
   PM-|    PM---|    PM------|    PM---|    PM-
   E  E E  E  E E  E E    E  E E  E  E E  E E
|----------------------|----------------------|
|----------------------|----------------------|
|----------------------|----------------------|
|-------5----------5---|-------2----------2---|
|--3--3-3--3--3-3--3-3-|--0--0-0--0--0-0--0-0-|
|----------------------|----------------------|
|
|  Q.      Q.      Q      Q.      Q.      Q
|----------------------|----------------------|
|----------------------|-----------------12---|
|-12------12------12---|-12------14-----------|
|----------------------|----------------------|
|----------------------|----------------------|
|----------------------|----------------------|


  G5                     D5
 -----|    PM---|    PM-----|   PM--|   PM
   E  E E  E  E E  E E    E E E E E E E E
|----------------------|------------------|
|----------------------|------------------|
|----------------------|------------------|
|----------------------|------7-------7---|
|-------5----------5---|--5-5-5-5-5-5-5-5-|
|--3--3-3--3--3-3--3-3-|------------------|
|
|  Q.      Q.      Q      W
|----------------------|------------------|
|-12-------------------|------------------|
|---------14------12---|-14---------------|
|----------------------|------------------|
|----------------------|------------------|
|----------------------|------------------|


  G5                     C5
   PM-|    PM---|    PM------|    PM---|    PM-
   E  E E  E  E E  E E    E  E E  E  E E  E E
|----------------------|----------------------|
|----------------------|----------------------|
|----------------------|----------------------|
|----------------------|-------5----------5---|
|-------5----------5---|--3--3-3--3--3-3--3-3-|
|--3--3-3--3--3-3--3-3-|----------------------|
|
|  Q.      Q.      Q      Q.      Q.      Q
|----------------------|----------------------|
|-12------13------15---|-15------13------12---|
|----------------------|----------------------|
|----------------------|----------------------|
|----------------------|----------------------|
|----------------------|----------------------|


  D5                     B5
 -----|    PM---|    PM------|   PM--|    PM
   E  E E  E  E E  E E    E  E E E E E  E E
|----------------------|--------------------|
|----------------------|--------------------|
|----------------------|--------------------|
|-------7----------7---|-------4--------4---|
|--5--5-5--5--5-5--5-5-|--2--2-2-2-2-2--2-2-|
|----------------------|--------------------|
|
|  Q.      Q.      Q      H.            Q
|-15------14------12---|--------------------|
|----------------------|-15------------13---|
|----------------------|--------------------|
|----------------------|--------------------|
|----------------------|--------------------|
|----------------------|--------------------|


  C5                     A5
   PM-|    PM---|    PM------|    PM---|    PM-
   E  E E  E  E E  E E    E  E E  E  E E  E E
|----------------------|----------------------|
|----------------------|----------------------|
|----------------------|----------------------|
|-------5----------5---|-------2----------2---|
|--3--3-3--3--3-3--3-3-|--0--0-0--0--0-0--0-0-|
|----------------------|----------------------|
|
|  Q.      Q.      Q      Q.      Q.      Q
|----------------------|----------------------|
|-12------13------15---|-15------13------12---|
|----------------------|----------------------|
|----------------------|----------------------|
|----------------------|----------------------|
|----------------------|----------------------|


  G5                     D5
 -----|    PM---|    PM------|   PM--|     PM
   E  E E  E  E E  E E    E  E E E E E  E  E
|----------------------|---------------------|
|----------------------|---------------------|
|----------------------|---------------------|
|----------------------|-------7--------7----|
|-------5----------5---|--5--5-5-5-5-5--5--5-|
|--3--3-3--3--3-3--3-3-|---------------------|
|
|  Q.      Q.      Q      H.            E  E
|----------------------|---------------------|
|-12-------------------|---------------------|
|---------14------12---|-14------------12-11-|
|----------------------|---------------------|
|----------------------|---------------------|
|----------------------|---------------------|


  C5
   W           +H      H
|-----------|----------------|
|-----------|----------------|
|--5--------|--(5)-----------|
|--5--------|--(5)-----------|
|--3--------|--(3)-----------|
|-----------|---------20\----|
|
|  W           +W
|-----------|----------------|
|-----------|----------------|
|-12--------|-(12)-----------|
|-----------|----------------|
|-----------|----------------|
|-----------|----------------|


 Solo - Adam Bickers
  E5
  Gtr I
   W                                 Q.            Q.            E     E
|-17b19---------------------------|-17b19---------17b19---------17b19r15---|
|---------------------------------|----------------------------------------|
|---------------------------------|----------------------------------------|
|---------------------------------|----------------------------------------|
|---------------------------------|----------------------------------------|
|---------------------------------|----------------------------------------|
|
| Gtr II
|       PM----|   PM------------|         PM----|       PM----|        PM|
|  E    S S S S E S S S S S S S S    E    S S S S  E    S S S S  E     S S
|---------------------------------|----------------------------------------|
|---------------------------------|----------------------------------------|
|---------------------------------|----------------------------------------|
|--9------------9-----------------|-10-------------9-------------7---------|
|--7------------7-----------------|--7-------------7-------------7---------|
|-------0-0-0-0---0-0-0-0-0-0-0-0-|-------0-0-0-0-------0-0-0-0--------0-0-|
|
| Gtr III
|  W                                +W
|--7------------------------------|-(7)------------------------------------|
|--8------------------------------|-(8)------------------------------------|
|--9------------------------------|-(9)------------------------------------|
|---------------------------------|----------------------------------------|
|---------------------------------|----------------------------------------|
|---------------------------------|----------------------------------------|


  D5
   T           T     T     T           T     T
   S  S  S  S  S  S  S  S  S  S  S  S  S  S  S  S
|-22p17p15p14-19p14-21p14-22p17p15p14-19p14-21p14---|
|---------------------------------------------------|
|---------------------------------------------------|
|---------------------------------------------------|
|---------------------------------------------------|
|---------------------------------------------------|
|
|        PM------|         PM------------------|
|  E     S  S  S  S  E     S  S  S  S  S  S  S  S
|---------------------------------------------------|
|---------------------------------------------------|
|---------------------------------------------------|
|--7-----------------7------------------------------|
|--5-----5--5--5--5--5-----5--5--5--5--5--5--5--5---|
|---------------------------------------------------|
|
|  W
|--5------------------------------------------------|
|--8------------------------------------------------|
|--7------------------------------------------------|
|---------------------------------------------------|
|---------------------------------------------------|
|---------------------------------------------------|


   T            T     T
   S   S  S  S  S  S  S  S  Q        +S   S  S  S
|-22p=17p15p14-19p14-21p14-22-------(22)-12-17-19-|
|-------------------------------------------------|
|-------------------------------------------------|
|-------------------------------------------------|
|-------------------------------------------------|
|-------------------------------------------------|
|
|         PM|               PM----|          PM|
|  E      S  S  E     E     S S S S   E      S  S
|-------------------------------------------------|
|-------------------------------------------------|
|-------------------------------------------------|
|--7------------5-----7---------------7-----------|
|--5------5--5--5-----5-----5-5-5-5---5------5--5-|
|-------------------------------------------------|
|
|  W
|-(5)---------------------------------------------|
|--7----------------------------------------------|
|-(7)---------------------------------------------|
|-------------------------------------------------|
|-------------------------------------------------|
|-------------------------------------------------|


  A5
   S  S  S  S  S  S  S  S  S  S  S  S  S  S  S  S
|-20-19-17----17----------------------------------|
|----------20----20-19-17-20-19-17----20-19-17----|
|----------------------------------19----------19-|
|-------------------------------------------------|
|-------------------------------------------------|
|-------------------------------------------------|
|
|  W
|-------------------------------------------------|
|-------------------------------------------------|
|--2----------------------------------------------|
|--2----------------------------------------------|
|--0----------------------------------------------|
|-------------------------------------------------|
|
|  W
|--8----------------------------------------------|
|--5----------------------------------------------|
|--5----------------------------------------------|
|-------------------------------------------------|
|-------------------------------------------------|
|-------------------------------------------------|


   S   S  S  S  S  S  S  S  S  S  S  S  S  S  S  S
|--------------------------------------------------|
|--------17----------------------------------------|
|-17--16----19-17-16----16-------------------------|
|--------------------19----19-17-16-17-19-17-16----|
|-----------------------------------------------19-|
|--------------------------------------------------|
|
| +W
|--------------------------------------------------|
|--------------------------------------------------|
|-(2)----------------------------------------------|
|-(2)----------------------------------------------|
|-(0)----------------------------------------------|
|--------------------------------------------------|
|
| +W
|-(8)----------------------------------------------|
|-(5)----------------------------------------------|
|-(5)----------------------------------------------|
|--------------------------------------------------|
|--------------------------------------------------|
|--------------------------------------------------|


  C5                                                D5
   S  S  S  S  S  S  S  S  S  S  S  S  S  S  S  S    E  S  S  S  S  S  S  Q.    +S  S
|-------------------------------------------------|------------------------------------|
|-------------------------------------------------|------------------------------------|
|-------------------------------------------------|------------------------------------|
|-16-17-19-17-16----------------16----------------|-17-16------------------------------|
|----------------19-17----17-19----19-17----17-19-|-------17-15------------------------|
|----------------------20----------------20-------|-------------19-17-15-12\---(12)-0--|
|
|  W                                                 W
|-------------------------------------------------|------------------------------------|
|-------------------------------------------------|------------------------------------|
|--5----------------------------------------------|--7---------------------------------|
|--5----------------------------------------------|--7---------------------------------|
|--3----------------------------------------------|--5---------------------------------|
|-------------------------------------------------|------------------------------------|
|
|  W                                                 W
|--3----------------------------------------------|--5---------------------------------|
|--5----------------------------------------------|--7---------------------------------|
|--5----------------------------------------------|--7---------------------------------|
|-------------------------------------------------|------------------------------------|
|-------------------------------------------------|------------------------------------|
|-------------------------------------------------|------------------------------------|


  E5
                                     ~~
         |---3---|     |---3---|
   S  S  S  S    S  S  S  S    S  S  H
|------------------15--------------------------------|
|---------------12----12-----------------------------|
|----------12------------12--------------------------|
|-------12--------------------12---------------------|
|----10--------------------------10------------------|
|-12--------------------------------12---------------|
|
|        PM-----------|              PM------------|
|  E     S    S     S  S    E        S S S S S S S S
|----------------------------------------------------|
|----------------------------------------------------|
|----------------------------------------------------|
|--9------------------------9------------------------|
|--7------------------------7------------------------|
|--------0----0-----0--0-------------0-0-0-0-0-0-0-0-|
|
|  W
|--7-------------------------------------------------|
|--8-------------------------------------------------|
|--9-------------------------------------------------|
|----------------------------------------------------|
|----------------------------------------------------|
|----------------------------------------------------|


                                         D5
                         ~
   S   S  S S  S S  S  S H                S  S  S  S  S  S  S  S  S  S  S  S  S  S  S  S
|--------------------------------------|--------------------------------------------------|
|--------------------------------------|--------------------------------------------------|
|--------------------------------------|-------------------------11-12-14-11-12-14-12-14--|
|-----------9-10-9-------9-------------|-------------------12-14--------------------------|
|-----10-12--------12-10---------------|----------12-14-15--------------------------------|
|-12-----------------------------------|-12-14-15-----------------------------------------|
|
|         PM-----|       PM----|   PM|          PM------|         PM------------------|
|  E      S S  S S  E    S S S S E S S    E     S  S  S  S  E     S  S  S  S  S  S  S  S
|--------------------------------------|--------------------------------------------------|
|--------------------------------------|--------------------------------------------------|
|--------------------------------------|--------------------------------------------------|
|-10----------------9------------7-----|--7-----------------7-----------------------------|
|--7----------------7------------7-----|--5-----5--5--5--5--5-----5--5--5--5--5--5--5--5--|
|---------0-0--0-0-------0-0-0-0---0-0-|--------------------------------------------------|
|
| +W                                      W
|-(7)----------------------------------|--5-----------------------------------------------|
|-(8)----------------------------------|--8-----------------------------------------------|
|-(9)----------------------------------|--7-----------------------------------------------|
|--------------------------------------|--------------------------------------------------|
|--------------------------------------|--------------------------------------------------|
|--------------------------------------|--------------------------------------------------|


                                   A5
                  ~~~~
   Q       E  E  +H                 S  S  S  S  S  S  S  S  S  S  S  S  S  S  S  S
|--------------------------------|-------------------------------------------12-14-|
|-12------13---------------------|-------------------------------------12-13-------|
|------------14-(14)-------------|-------------------------------12-14-------------|
|--------------------------------|----------------------14-12-14-------------------|
|--------------------------------|----------12----12-14----------------------------|
|--------------------------------|-12-14-15----15----------------------------------|
|
|     PM|         PM-----|   PM|
|  E  S S  E  E   S  S S S E S S    W
|--------------------------------|-------------------------------------------------|
|--------------------------------|-------------------------------------------------|
|--------------------------------|--2----------------------------------------------|
|--7-------5--7------------7-----|--2----------------------------------------------|
|--5--5-5--5--5---5--5-5-5-5-5-5-|--0----------------------------------------------|
|--------------------------------|-------------------------------------------------|
|
|  W                                W
|-(5)----------------------------|--8----------------------------------------------|
|--7-----------------------------|--5----------------------------------------------|
|-(7)----------------------------|--5----------------------------------------------|
|--------------------------------|-------------------------------------------------|
|--------------------------------|-------------------------------------------------|
|--------------------------------|-------------------------------------------------|


   S   S  S  S  S  S  S  S  S  S  S  S  S  S  S  S
|-15--17-19-20-19-20-22-20-19-20-19-17-15-----------|
|-----------------------------------------19-17-15--|
|---------------------------------------------------|
|---------------------------------------------------|
|---------------------------------------------------|
|---------------------------------------------------|
|
| +W
|---------------------------------------------------|
|---------------------------------------------------|
|-(2)-----------------------------------------------|
|-(2)-----------------------------------------------|
|-(0)-----------------------------------------------|
|---------------------------------------------------|
|
| +W
|-(8)-----------------------------------------------|
|-(5)-----------------------------------------------|
|-(5)-----------------------------------------------|
|---------------------------------------------------|
|---------------------------------------------------|
|---------------------------------------------------|


  C5
                                  |--3--|  |--3--|
   Q      E     S  S  S  S  S  S  S  S  S  S  S  S
|--------------------------------------------------|
|-12b13--------13-12-------------------------------|
|--------12b14-------14-12-11----12-14-16-17-16-14-|
|-----------------------------14-------------------|
|--------------------------------------------------|
|--------------------------------------------------|
|
|  W
|--------------------------------------------------|
|--------------------------------------------------|
|--5-----------------------------------------------|
|--5-----------------------------------------------|
|--3-----------------------------------------------|
|--------------------------------------------------|
|
|  W
|--3-----------------------------------------------|
|--5-----------------------------------------------|
|--5-----------------------------------------------|
|--------------------------------------------------|
|--------------------------------------------------|
|--------------------------------------------------|


  D5
               |--3--|     |--3--|
   S  S  S  S  S  S  S  S  S  S  S  S  S  S  S  S  S  S
|--------------------------------------------------------||
|--------------------------------------------------------||
|-12-11----------11-12-14-12-11--------------------------||
|-------14-12-14----------------14-12--------------------||
|-------------------------------------15-14-12-14-12-----||
|----------------------------------------------------15--||
|
|  W
|--------------------------------------------------------||
|--------------------------------------------------------||
|--7-----------------------------------------------------||
|--7-----------------------------------------------------||
|--5-----------------------------------------------------||
|--------------------------------------------------------||
|
|  W
|--5-----------------------------------------------------||
|--7-----------------------------------------------------||
|--7-----------------------------------------------------||
|--------------------------------------------------------||
|--------------------------------------------------------||
|--------------------------------------------------------||


 Solo - Steve Williams
  C5
  Gtr III
   |---3----|   |--3--| |--3--|  |--3--|
   E      E E   E  E  E E  E  E  E  E  E
|-12-----10-8--10--8----8----------------|
|--------------------12---12-10-12-10----|
|-------------------------------------12-|
|----------------------------------------|
|----------------------------------------|
|----------------------------------------|
|
| Gtr II
|     ~~~~~~~~~~~~~
|  S  E.       +Q       H
|----------------------------------------|
|----------------------------------------|
|----------------------------------------|
|----------------------------------------|
|----------------------------------------|
|-14-12-------(12)-----------------------|
|
| Gtr I
|  W
|----------------------------------------|
|----------------------------------------|
|--5-------------------------------------|
|--5-------------------------------------|
|--3-------------------------------------|
|----------------------------------------|


  G5                                  D5
   |-3--| |--3--|  |--3--|  |--3--|    |-3--| |--3--|  |--3--|  |--3--|
   E E  E E  E  E  E  E  E  E  E  E    E E  E E  E  E  E  E  E  E  E  E
|-10-8----8-------------------------|-----------------------------------|
|------12---12-10-12-10----10-------|-----------------------10----10-12-|
|-----------------------12----12-11-|----9-11-9-11-12-11-12----12-------|
|-----------------------------------|-12--------------------------------|
|-----------------------------------|-----------------------------------|
|-----------------------------------|-----------------------------------|
|
|  W                                   W
|-----------------------------------|-----------------------------------|
|-----------------------------------|-----------------------------------|
|-----------------------------------|--7--------------------------------|
|--5--------------------------------|--7--------------------------------|
|--5--------------------------------|--5--------------------------------|
|--3--------------------------------|-----------------------------------|
|
|  W                                   W
|-----------------------------------|-----------------------------------|
|-----------------------------------|-----------------------------------|
|-----------------------------------|--7--------------------------------|
|--5--------------------------------|--7--------------------------------|
|--5--------------------------------|--5--------------------------------|
|--3--------------------------------|-----------------------------------|


  E5
  |--3--|  |--3--|  |--3--|  |-3--|
  E  E  E  E  E  E  E  E  E  E  E E
|---------------------------------8-|
|---------------10----10-12-10-12---|
|-9-11-12-11-12----12---------------|
|-----------------------------------|
|-----------------------------------|
|-----------------------------------|
|
| Gtrs I, II
| W
|-----------------------------------|
|-----------------------------------|
|-9---------------------------------|
|-9---------------------------------|
|-7---------------------------------|
|-----------------------------------|


  C5                                 G5
   |-3--|  |-3--| |--3--|  |--3--|   |--3--|  |--3--|  |--3--| |--3--|
   E  E E  E E  E E  E  E  E  E  E   E  E  E  E  E  E  E  E  E E  E  E
|-12-10-8-10-8----8----------------|------------------------10-8-10-12--|
|--------------12---12-10-12-10----|---------10-12-13-12-13-------------|
|-------------------------------12-|-9-11-12----------------------------|
|----------------------------------|------------------------------------|
|----------------------------------|------------------------------------|
|----------------------------------|------------------------------------|
|
|  W                                 W
|----------------------------------|------------------------------------|
|----------------------------------|------------------------------------|
|--5-------------------------------|------------------------------------|
|--5-------------------------------|-5----------------------------------|
|--3-------------------------------|-5----------------------------------|
|----------------------------------|-3----------------------------------|


  E5                                    D5
   |--3--|  |--3--|  |--3--|  |--3--|    |--3--|  |--3--|  |--3--|  |--3--|
   E  E  E  E  E  E  E  E  E  E  E  E    E  E  E  E  E  E  E  E  E  E  E  E
|-19-17-15-20-19-17-19-17-15-17-15-14-|-17-15-14----------------------------||
|-------------------------------------|----------15----------------15-------||
|-------------------------------------|-------------14----------14----14----||
|-------------------------------------|----------------16----16----------16-||
|-------------------------------------|-------------------17----------------||
|-------------------------------------|-------------------------------------||
|
|  W                                     W
|-------------------------------------|-------------------------------------||
|-------------------------------------|-------------------------------------||
|--9----------------------------------|--7----------------------------------||
|--9----------------------------------|--7----------------------------------||
|--7----------------------------------|--5----------------------------------||
|-------------------------------------|-------------------------------------||


 Solo - Sam Totman
  G5            D5              E5            C5
  Gtr I
                                                ~~~~
   H     H       H     Q   Q     H     H        H.       E  E
|-------15----|---------------|-------------|-----------------|
|-12----------|-15----12------|-------12----|-[15]------------|
|-------------|-----------14--|-12----------|-----------12-14-|
|-------------|---------------|-------------|-----------------|
|-------------|---------------|-------------|-----------------|
|-------------|---------------|-------------|-----------------|
|
| Gtr V
|                                               ~~~~
|  H     H       H     Q   Q     H     H        H.       E  E
|-------------|---------------|-------------|-----------------|
|-------15----|---------------|-------------|-----------------|
|-12----------|-12----12--11--|-------12----|-[12]------------|
|-------------|---------------|-14----------|-----------12-14-|
|-------------|---------------|-------------|-----------------|
|-------------|---------------|-------------|-----------------|
|
| Gtr II
|  W             W               W              W
|-------------|---------------|-------------|-----------------|
|-------------|---------------|-------------|-----------------|
|-------------|--7------------|-------------|---5-------------|
|--5----------|--7------------|--2----------|---5-------------|
|--5----------|--5------------|--2----------|---3-------------|
|--3----------|---------------|--0----------|-----------------|


  G5
   E E E  Q   E  E  E    E   S S E  Q   E  E  E
|---------------------|-------------------------|
|-12---x-12-----------|-12--12---x-12-----12-13-|
|------------14-12-14-|----------------14-------|
|---------------------|-------------------------|
|---------------------|-------------------------|
|---------------------|-------------------------|
|
|  E E E  Q   E  E  E    E   S S E  Q   E  E  E
|---------------------|-------------------------|
|---------------------|-------------------------|
|-12---x-12-----------|-12--12---x-12-----12-14-|
|------------14-12-14-|----------------14-------|
|---------------------|-------------------------|
|---------------------|-------------------------|
|
|  W                    +W
|---------------------|-------------------------|
|---------------------|-------------------------|
|---------------------|-------------------------|
|--5------------------|-(5)---------------------|
|--5------------------|-(5)---------------------|
|--3------------------|-(3)---------------------|


  D5
                            ~~~
   Q      E  E E  E E  E    Q.    Q.    E  E
|--------10-10-----------|-------------------|
|-13b15----------13---12-|-------10----12-13-|
|------------------------|--9----------------|
|------------------------|-------------------|
|------------------------|-------------------|
|------------------------|-------------------|
|
|  Q      E  E E  E E  E    Q.    Q.    Q
|------------------------|-------------------|
|--------12-12-----------|-------------------|
|-14b16----------14---12-|-14----12----11----|
|------------------------|-------------------|
|------------------------|-------------------|
|------------------------|-------------------|
|
|  W                       +W
|------------------------|-------------------|
|------------------------|-------------------|
|--7---------------------|-(7)---------------|
|--7---------------------|-(7)---------------|
|--5---------------------|-(5)---------------|
|------------------------|-------------------|


  G5
   T     T     T     T     T     T     T     T
   S  S  S  S  S  S  S  S  S  S  S  S  S  S  S  S
|-------------------------------------------------|
|-20p15-20p15-20p15-20p15-20p15-20p15-20p15-20p15-|
|-------------------------------------------------|
|-------------------------------------------------|
|-------------------------------------------------|
|-------------------------------------------------|
|
| Gtr II
|  W
|-------------------------------------------------|
|-------------------------------------------------|
|-------------------------------------------------|
|--5----------------------------------------------|
|--5----------------------------------------------|
|--3----------------------------------------------|


  D5
   T     T     T     T     T     T     T     T
   S  S  S  S  S  S  S  S  S  S  S  S  S  S  S  S
|-------------------------------------------------|
|-20p15-20p15-20p15-22p15-24p15-24p15-22p15-22p15-|
|-------------------------------------------------|
|-------------------------------------------------|
|-------------------------------------------------|
|-------------------------------------------------|
|
|  W
|-------------------------------------------------|
|-------------------------------------------------|
|--7----------------------------------------------|
|--7----------------------------------------------|
|--5----------------------------------------------|
|-------------------------------------------------|


  E5                        C5
           ~~
   Q.      Q   E  E  S  S    S  S  S  S  S S  Q.     E  E
|-------------------------|-------------------------------|
|-15b17---17--20-17-20p17h|=20p17h20p17------17-----17-19-|
|-------------------------|-------------16----------------|
|-------------------------|-------------------------------|
|-------------------------|-------------------------------|
|-------------------------|-------------------------------|
|
| Gtr V
|  W                         H                   Q   E  E
|-------------------------|-------------------------------|
|-------------------------|-------------------------------|
|-------------------------|-------------------------12-14-|
|-------------------------|-------------------------------|
|-------------------------|-------------------------------|
|-------------------------|-------------------------------|
|
| Gtr II
|  W                         W
|-------------------------|-------------------------------|
|-------------------------|-------------------------------|
|-------------------------|--5----------------------------|
|--2----------------------|--5----------------------------|
|--2----------------------|--3----------------------------|
|--0----------------------|-------------------------------|


  G5
   Q.      E E  E E  E    Q.    Q   E  E  E
|----------------------|--------------------|
|-19b20---20---19---17-|--------------17-19-|
|----------------------|-19----16--19-------|
|----------------------|--------------------|
|----------------------|--------------------|
|----------------------|--------------------|
|
|  Q.      E E  E E  E    Q.    Q   E  E  E
|----------------------|--------------------|
|----------------------|--------------------|
|-14b16---16---14------|-16-----------16-17-|
|-------------------17-|-------17--17-------|
|----------------------|--------------------|
|----------------------|--------------------|
|
|  W                     +W
|----------------------|--------------------|
|----------------------|--------------------|
|----------------------|--------------------|
|--5-------------------|-(5)----------------|
|--5-------------------|-(5)----------------|
|--3-------------------|-(3)----------------|


   Q.    Q.    Q      S   S  S  S  S  S  S  S  S  S  S  S  Q
|-15----17----19--|--17h=19p17h19p17h19p17h19-15h17p15h17-14--|
|-----------------|-------------------------------------------|
|-----------------|-------------------------------------------|
|-----------------|-------------------------------------------|
|-----------------|-------------------------------------------|
|-----------------|-------------------------------------------|
|
|  W                 +W
|-----------------|-------------------------------------------|
|-----------------|-------------------------------------------|
|-19--------------|-(19)--------------------------------------|
|-----------------|-------------------------------------------|
|-----------------|-------------------------------------------|
|-----------------|-------------------------------------------|
|
|  W                 +W
|-----------------|-------------------------------------------|
|-----------------|-------------------------------------------|
|--7--------------|--(7)--------------------------------------|
|--7--------------|--(7)--------------------------------------|
|--5--------------|--(5)--------------------------------------|
|-----------------|-------------------------------------------|


 Pre-Chorus
  C5                G5                  D5               E5
   W                 +W                 W                W
|-15--------------|-(15)--------------|----------------|------|
|-----------------|-------------------|----------------|------|
|-----------------|-------------------|-7--------------|-9----|
|-----------------|-------------------|-7--------------|-9----|
|-----------------|-------------------|-5--------------|-7----|
|-----------------|-------------------|----------------|------|
|
|  W                  W                 W                W
|-----------------|-------------------|----------------|------|
|-----------------|-------------------|----------------|------|
|--5--------------|-------------------|-7--------------|-9----|
|--5--------------|---5---------------|-7--------------|-9----|
|--3--------------|---5---------------|-5--------------|-7----|
|-----------------|---3---------------|----------------|------|
|
| Gtr III
|  H     Q    Q       H      Q    Q     H     Q    Q     W
|--8----(8)--(8)--|---7------5----7---|-5-----3----5---|-7----|
|--8-----7----8---|---8-----(8)--(8)--|-7----(7)--(7)--|-8----|
|--9----(9)--(9)--|---7-----(7)--(7)--|-7----(7)--(7)--|-9----|
|-----------------|-------------------|----------------|------|
|-----------------|-------------------|----------------|------|
|-----------------|-------------------|----------------|------|


  C5               G5               E5               D5
  Gtrs I, II
  W                W                W                W
|----------------|----------------|----------------|-------------||
|----------------|----------------|----------------|-------------||
|-5--------------|----------------|-9--------------|-7-----------||
|-5--------------|-5--------------|-9--------------|-7-----------||
|-3--------------|-5--------------|-7--------------|-5-----------||
|----------------|-3--------------|----------------|-------------||
|
| Gtr III
| H     Q    Q     H     Q    Q     H     Q    Q     H     H
|-8----(8)--(8)--|-7-----5----7---|-7-----3----5---|-5----(5)----||
|-8-----7----8---|-8----(8)--(8)--|-8----(8)--(8)--|-8-----7-----||
|-9----(9)--(9)--|-7----(7)--(7)--|-9----(9)--(9)--|-7----(7)----||
|----------------|----------------|----------------|-------------||
|----------------|----------------|----------------|-------------||
|----------------|----------------|----------------|-------------||


   Out-Chorus
    G5          D5          E5          C5
    W           W           W           W
||------------|-----------|-----------|-----------|
||o-----------|-----------|-----------|-----------|
||------------|-7---------|-----------|-5---------|
||--5---------|-7---------|-2---------|-5---------|
||o-5---------|-5---------|-2---------|-3---------|
||--3---------|-----------|-0---------|-----------|
|
|   H    H      H    H      H    H      H    H
||-------7----|-5---------|-7---------|-8----8----|
||o-8----8----|-7----7----|-8----8----|-8----8----|
||--7----7----|-7----7----|-9----9----|-9----9----|
||------------|-----------|-----------|-----------|
||o-----------|-----------|-----------|-----------|
||------------|-----------|-----------|-----------|


  G5                        D5
  W           +W            W           +W
|-----------|-------------|-----------|---------||
|-----------|-------------|-----------|--------o||
|-----------|-------------|-7---------|-(7)-----||
|-5---------|-(5)---------|-7---------|-(7)-----||
|-5---------|-(5)---------|-5---------|-(5)----o||
|-3---------|-(3)---------|-----------|---------||
|
| H    H       H     H      H    H       W
|-7----7----|--7----------|-5---------|--5------||
|-8----8----|--8-----8----|-7----7----|--7-----o||
|-7----7----|--7-----7----|-7----7----|--7------||
|-----------|-------------|-----------|---------||
|-----------|-------------|-----------|--------o||
|-----------|-------------|-----------|---------||


  C5                      G5
  W          +W           Q.   Q.   Q     E  E +H.
|----------|------------|--------------|--------------*|
|----------|------------|--------------|--------------*|
|-5--------|-(5)--------|--------------|--------------*|
|-5--------|-(5)--------|-5----5----5--|--5--5-(5)----*|
|-3--------|-(3)--------|-5----5----5--|--5--5-(5)----*|
|----------|------------|-3----3----3--|--3--3-(3)----*|
|
| W          +W           W              +Q     H.
|-8--------|-(8)--------|-7------------|-(7)----------*|
|-8--------|-(8)--------|-8------------|-(8)----------*|
|----------|------------|-7------------|-(7)----------*|
|----------|------------|--------------|--------------*|
|----------|------------|--------------|--------------*|
|----------|------------|--------------|--------------*|



Duration Legend
---------------
W - whole; H - half; Q - quarter; E - 8th; S - 16th; T - 32nd; X - 64th; a - acciaccatura
+ - note tied to previous; . - note dotted; .. - note double dotted
Uncapitalized letters represent notes that are staccato (1/2 duration)
Irregular groupings are notated above the duration line
Duration letters will always appear directly above the note/fret number it represents the
duration for.  Duration letters with no fret number below them represent rests.  Multi-
bar rests are notated in the form Wxn, where n is the number of bars to rest for.  Low
melody durations appear below the staff

Tablature Legend
----------------
 h   - hammer-on
 p   - pull-off
 b   - bend
 pb  - pre-bend
 r   - bend release (if no number after the r, then release immediately)
 /\  - slide into or out of (from/to "nowhere")
 s   - legato slide
 S   - shift slide
 - natural harmonic
[n]  - artificial harmonic
n(n) - tapped harmonic
 ~   - vibrato
 tr  - trill
 T   - tap
 TP  - trem. picking
 PM  - palm muting
\n/  - tremolo bar dip; n = amount to dip
 \n  - tremolo bar down
 n/  - tremolo bar up
/n\  - tremolo bar inverted dip
 =   - hold bend; also acts as connecting device for hammers/pulls
 <> - volume swell (louder/softer)
 x   - on rhythm slash represents muted slash
 o   - on rhythm slash represents single note slash

Misc Legend
-----------
 |  - bar
||  - double bar
||o - repeat start
o|| - repeat end
*|  - double bar (ending)
 :  - bar (freetime)
 $  - Segno
 &  - Coda
Tempo markers -  = BPM(8/16=s8/s16), where s8 = swing 8ths, s16 = swing 16ths





Comments


Popular Power Quest tabs & chords
Far Away Bass Tabs
Children Of The Dream Chords
Far Away Chords
The Message Chords
Soulfire Intro Tabs
The Message Intro Tabs
Children Of The Dream Ukulele
Far Away Ukulele
The Message Ukulele


Song lyrics



↑ Back to top | Tablatures and chords are parodies/interpretations of the original songs. You may use it for private study, scholarship, research or language learning purposes only
© 2014 AZChords.com Contact us | Privacy policy | DMCA | Add/correct tabs | Request tabs | Top 50 tabs