» » »

Public Menace, Freak, Human Fly Bass tabs (ver.1)

Artists:  A B C D E F G H I J K L M N O P Q R S T U V W X Y Z # 

Public Menace, Freak, Human Fly Bass tabs (ver.1)

Powerman 5000
Rating:
0/5 (0 votes)

Hard to play? Try these video lessons and learn fast.
                 
Intro

G ----------------------------|
D ----------------------------|
A ----------------------------|
E -0-3---0-2---0-3------------|/

Bass Riff

G ----------------------------|
D ----------------------------|
A ----------------------------|
E -3-2-1----------------------|/ 
  
The Riff with bass and guitard
 
G ----------------------------|
D ----------------------------|
A ----------------------------|
E -3-2-1---3-3---3-3-2-2------|/
  
Bridge
 
G ----------------------------|
D ----------------------------|
A ----------------------------|
E 0-3---0-2---0-3---0-4-------|/ 
 
Its freak yea! lol :D
            
Hard to play? Try these video lessons and learn fast. | Correct




comments powered by Disqus
↑ Back to top | Tablatures and chords are parodies/interpretations of the original songs. You may use it for private study, scholarship, research or language learning purposes only