>
 >
Public Menace, Freak, Human Fly

Public Menace, Freak, Human Fly Guitar Tabs

Powerman 5000 - Public Menace, Freak, Human Fly chords, tabs, tablatures, lyrics

Guitar lessons | Add/correct | Request | Top 50 tabs Artists:  A B C D E F G H I J K L M N O P Q R S T U V W X Y Z 0-9

Public Menace, Freak, Human Fly Guitar Tabs – Powerman 5000

CD, Sheet music, Poster

Do you like Public Menace, Freak, Human Fly? Share with your friends now
Bass TabsTabsTabs v2
Intro
|----------------------------------14-|
|----------------------------------12-|
|-------------------------------------|
|-1----6b--1----6bv--1----4b--1-------|
|-1--------1---------1--------1-------|
|-1--------1---------1--------1-------|
                                                                              

Riff 1
|-----|
|-----|
|-----|
|-2-2-|
|-2-2-|
|-2-2-|
                                                                              

Riff 2
|---------|
|---------|
|---------|
|-2-2-1-1-|
|-2-2-1-1-|
|-2-2-1-1-|
   
                                                                           
Riff 3
|---------|
|---------|
|---------|
|-5-4-3-2-|
|-5-4-3-2-|
|-5-4-3-2-|
                                
                                              
Riff 4
|-----------------------------------------------------|
|-----------------------------------------------------|
|-----------------------------------------------------|
|-1---1-6b-------1---1-6v6bv---1---1-4-4b5r4--1-1-1-1-|
|-1---1-xx-x-xx--1---1---------1---1-xx-x-xx--1-1-1-1-|
|-1---1-xx-x-xx--1---1---------1---1-xx-x-xx--1-1-1-1-|
                                                                              

Riff 5
|----------------|
|----------------|
|----------------|
|-7-6-5-4--2---2-|
|-7-6-5-4--0---0-|
|-7-6-5-4--------|
                                                                              

Riff 6
|-------|
|-------|
|-------|
|-4-3-2-|
|-4-3-2-|
|-4-3-2-|
                                                                              

Riff 7
|-----------------------------------------------------------------------|
|-----------------------------------------------------------------------|
|-----------------------------------------------------------------------|
|-1---1-6b------1---1-6v6bv---1---1-4-4b5r4-4b5r4--1-1-1-1-/7-54--------|
|-1---1-xx-x-xx-1---1---------1---1-xx-x-xx--------1-1-1-1-------7653-0-|
|-1---1-xx-x-xx-1---1---------1---1-xx-x-xx--------1-1-1-1--------------|


Riff 8
|-----------------------------------------------------------------|
|-----------------------------------------------------------------|
|-----------------------------------------------------------------|
|-1---1-6b------1-1-1-1-/7-54--------1---1-4-4b5r4-4b5r4--1-1-1-1-|
|-1---1-xx-x-xx-1-1-1-1-------7653-0-1---1-xx-x-xx--------1-1-1-1-|
|-1---1-xx-x-xx-1-1-1-1--------------1---1-xx-x-xx--------1-1-1-1-|



Order:
Intro     x1
Riff 1    x1
Riff 2    x1
Riff 1    x1
Riff 3    x1
Riff 4    x1
Riff 5    x2
Riff 1    x1
Riff 5    x4 (4th time don't play last two power chords)
Riff 2    x2
Riff 5    x1
Riff 6    x1
Riff 5    x1
Riff 3    x1
Riff 7    x1
Riff 8    x1
Riff 6    x3
Riff 1    x1
Riff 6    x3
Riff 3    x1
Riff 7    x1
Riff 8    x1

Questions, Comments, Corrections, etc.. please send to 





Comments


Popular Powerman 5000 tabs & chords
Standing Bass Tabs
Standing8 Bass Tabs
Supernova Goes Pop Bass Tabs
I Knew It Tabs
Murder Tabs
Public Menace, Freak, Human Fly 1 Tabs
Supernova Tabs
The Son Of X-51 Tabs
Top Of The World Tabs
V Is For Vampire Tabs


Song lyrics



↑ Back to top | Tablatures and chords are parodies/interpretations of the original songs. You may use it for private study, scholarship, research or language learning purposes only
© 2014 AZChords.com Contact us | Privacy policy | DMCA | Add/correct tabs | Request tabs | Top 50 tabs