» » »

Operate, Annihilate Bass tabs (ver.1)

Artists:  A B C D E F G H I J K L M N O P Q R S T U V W X Y Z # 

Operate, Annihilate Bass tabs (ver.1)

Powerman 5000
Rating:
0/5 (0 votes)

Hard to play? Try these video lessons and learn fast.
                POWERMAN 5000
                OPERATE, ANNIHILATE
                                 LISTEN TO THE SONG TO FIGURE OUT RHYTHM


                                      5x                                
G-------------------------------------||--------------------------------
D------------------------------------*||--------------------------------
A---3--3--5--5--2--2--4--4--1h2p1h2--*||--------------------------------
D-------------------------------------||--------------------------------
                                                                        

                                      4x                     8x         
G-------------------------------------||---------------------||---------
D------------------------------------*||--------------------*||---------
A------------------------------------*||--------------------*||---------
D---3--3-----3--3-----3--3-----3--5---||--3--5--2--4--1--2---||---------
                                                                        

                                      4x                                
G-------------------------------------||--------------------------------
D------------------------------------*||--------------------------------
A------------------------------------*||--------------------------------
D---3--3-----3--3-----3--3-----3--5---||--------------------------------
                                                                        

                                      4x                     8x         
G-------------------------------------||---------------------||---------
D------------------------------------*||--------------------*||---------
A---3--3--5--5--2--2--4--4--1h2p1h2--*||--------------------*||---------
D-------------------------------------||--3--5--2--4--1--2---||---------
                                                                        

                                      6x                     16x        
G-------------------------------------||---------------------||---------
D------------------------------------*||--------------------*||---------
A---3--3--5--5--2--2--4--4--1h2p1h2--*||--------------------*||---------
D-------------------------------------||--3--5--2--4--1--2---||---------
                                                                        



==            Created with a demo version of BUCKET O' TAB            ==
==              tablature creation software for Windows               ==
            
Hard to play? Try these video lessons and learn fast. | Correct




comments powered by Disqus
↑ Back to top | Tablatures and chords are parodies/interpretations of the original songs. You may use it for private study, scholarship, research or language learning purposes only