» » »

Pot, Posse-Bility Tabs (ver.1)

Artists:  A B C D E F G H I J K L M N O P Q R S T U V W X Y Z # 

Posse-Bility Tabs (ver.1)

Pot Tabs
Rating:
4/5 (1 vote)
Posse-Bility lessons Tabs too difficult? Try these video lessons and learn fast
                ----------------------------------------------------------------------------
			    Posse-bility 
			      by POT                         
----------------------------------------------------------------------------
any comments pls. Email me, thanks.

Tuning: standard

intro:
e|--------------------------------------------------------------------|
B|--------------------------------------------------------------------|
G|--------------------------------------------------------------------|
D|-----1-------------------------------------1------------------------|
A|-1h3---------3-1---------------1------1h3---------------------------|
E|------------------3--------1h3--------------------------------------|

e|-----------------------------------------|
B|-----------------------------------------|
G|-----------------------------------------|     
D|-------3-1-------------------------------|    4x
A|-3-1-3-------3-1---1---------------------|
E|------------------3----------------------|

e|------------------------------------------|
B|-6-4--------------------------------------|
G|-----5-4-3---1-----------1----------------|
D|---------------3-1---1h3----3\------------|
A|-------------------3----------------------|
E|------------------------------------------|

stanza:
e|----------------------------------------------------------------------|
B|----------------------------------------------------------------------|
G|----------------------------------------------------------------------|
D|-----1-------------1-----------------1--------------------------------|
A|-1h3-------1---1h3---------1----1h3--------1----1h3--------3-2-1------|
E|--------1h3-----------1h3-1-------------1h3----------1h3-1------------|


pre-chorus:
e|-------------------------------------------------------------------|
B|-------------------------------------------------------------------|
G|------5-3-1------5-3-1------5-3-1------3-1-------------------------| 
D|-1/3------------2----------1----------0-----1----------------------|  2x
A|-------------------------------------------------------------------|
E|-------------------------------------------------------------------|

chorus:
e|-------------------------------------------------------------------|
B|-------------------------------------------------------------------|
G|--------5-3-1------------1-2-3---------5-3-1---------0-1-2---------| 
D|-33-3-3-----------22-2-2--------11-1-1--------00-0-0---------------|  
A|-------------------------------------------------------------------|
E|-------------------------------------------------------------------|

e|-------------------------------------------------------------------|
B|-------------------------------------------------------------------|
G|--------5-3-1------------1-2-3---------5-3-1---------0-1-2---------| 
D|-33-3-3-----------22-2-2--------11-1-1--------00-0-0-------1-2-----|  
A|-------------------------------------------------------------------|
E|-------------------------------------------------------------------|

after chorus:
e|-------------------------------------------------------------------|
B|--------------------------------------------6-4--------------------|
G|--------------------------------------5-3-5------5-3----3----------|     
D|---------------------3-1------------------------------5------------|    
A|------1h3-1---3-1-3-------3-1---1----------------------------------|
E|-----------------------------------3-------------------------------|

e|------------------------------------------|
B|-6-4--------------------------------------|
G|-----5-4-3---1-----------1----------------|
D|---------------3-1---1h3----1h3\----------|
A|-------------------3----------------------|
E|------------------------------------------|

stanza:
pre-chorus:
chorus:

bridge:
e|-------------------------------------------------------------------|
B|-------------------------------------------------------------------|
G|-------------------------------------------------------------------|
D|-------------------------------------------------------------------|
A|-1h3-1---------1-------3--1-1--1---------1-------3--1-1--1---------|
E|------------1h3--3-1-3---------------1h3--3-1-3--------------------|

e|-------------------------------------------------------------------|
B|-------------------------------------------------------------------|
G|-------------------------------------------------------------------|
D|-------------------------------------------------------------------|
A|-----1-------3--1-1--1---------1-----------------------------------|
E|-1h3--3-1-3---------------1h3----3-1-3/----------------------------|

this time you gonna use wah-wah w/ distortion, just strum it.
     Cm7
e|--3------------------|
B|--4------------------|
G|--3------------------|
D|--5------------------|
A|--3------------------|
E|---------------------|

e|-------------------------------------------------------------------|
B|-------------------------------------------------------------------|
G|-------------------------------------------------------------------|
D|-------------------------------------------------------------------|
A|----------1-------3--1-1--1---------1-------3--1-1--1--------------|
E|------1h3--3-1-3---------------1h3--3-1-3--------------------------|

     Cm7
e|--3------------------|
B|--4------------------|
G|--3------------------|
D|--5------------------|
A|--3------------------|
E|---------------------|

adlib:
stanza:
pre-chorus:
chorus:
pre-outro:
e|---------------------------------------------------------------|
B|---------------------------------------------------------------|
G|--------5--5----------5--5-----------5--5----------5--5--------| 
D|-33-3-3--3-----22-2-2--2-----11-1-1--1-----00-0-0--0-----------|  3x
A|---------------------------------------------------------------|
E|---------------------------------------------------------------|

e|-----------------------------------------------------------------|
B|-----------------------------------------------------------------|
G|--------5--5----------5--5-----------5--5----------5--5----5-----| 
D|-33-3-3--3-----22-2-2--2-----11-1-1--1-----00-0-0--0-----3-------|  
A|-----------------------------------------------------------------|
E|-----------------------------------------------------------------|

outro:
e|-----------------------------------------------------------------|
B|-----------------------------------------------------------------|
G|-----------------------------------------------------------------|
D|-------------1-------------------------------------1-------------|
A|-1h3-1---1h3---------3-1--------------1------1h3----1h3----------|
E|--------------------------3--------1h3---------------------------|
            
Submit corrections

comments powered by Disqus
↑ Back to top | Pot Tabs for Posse-Bility. Lyrics for acoustic guitar and electric guitar. Tablatures and chords are parodies/interpretations of the original songs. You may use it for private study, scholarship, research or language learning purposes only