>
 >
 >
Monkey On My Back

Monkey On My Back Guitar Tabs

Pot - Monkey On My Back chords, tabs, tablatures, lyrics

Guitar lessons | Add/correct | Request | Top 50 tabs Artists:  A B C D E F G H I J K L M N O P Q R S T U V W X Y Z 0-9

Monkey On My Back Guitar Tabs – Pot

CD, Sheet music, Poster

Do you like Monkey On My Back? Share with your friends now
Tabs
tuning:standard tuning




intro:
(a)
                                                                                        (bass part)
e||-------------------------------------------------------------------------------------------------------|
b||----14----12----14---------------14----12----14b14b----14----12----14----------------------------------|
g||----14----12----14---------------14----12----14b14b----14----12----14----------------------------------|
d||-------14----14----14-12h14---------14----14--------------14----14----14-12h14-/-----------------------|
a||-------------------------------------------------------------------------------------------------------|
e||--0--------------------------0-0---------------------0-------------------------------------------------|

(b)
                                                                           (2x)
e||----------------------------------------------------------------------------|
b||-------------------------------------------------------8-x-8---------8-x-8--|
g||-------------------------------------------------------6-x-6--\6-----6-x-6--|
d||--8p7p5-7-8-10-8-7h8p7/5-8p7p5-7-5-2h3p2-------------5-7-x-7-----7-5-7-x-7--|
a||-----------------------------------------4h5-3-----4------------------------|
e||-----------------------------------------------6-5--------------------------|



verse:

                                                               (2x)
e||---------------------------------------------------------------|
b||--\-6-6-x6-6-x66--\-6-6-x6-6-x66----------8-x-8---------8-x-8--|
g||--\-5-5-x5-5-x55--\-5-5-x5-6-x55----------6-x-6--\6-----6-x-6--|
d||----------------------------------------5-7-x-7-----7-5-7-x-7--|
a||--------------------------------------4------------------------|
e||----------------------------------\-5--------------------------|



chorus:


                                                                    break...
e||------------------------------------------------------------------------|
b||------------------------------------------------------------------------|
g||--5----3-2------------------------------------------------5----3-2------|
d||--5----3-2-8p7p5-7-8-10-8-7h8p7/5-8p7p5-7-5-2h3p2---------5----3-2------|
a||--3----1-0----------------------------------------4h5-3---3----1-0------|
e||--------------------------------------------------------6---------------|



adlib:


e||--------------------------------------------------------------------------------------------------------------|
b||--------------------------------------------------------------------------------------------------------------|
g||--9b^--9^9^p7------------------------------------------------------------9h11p9-------------------------------|
d||--------------9p7---7h9-9p7-77h9--9p7--------------------7h9p7---7h9\-11--------11p9/7h9p7----------------\9--|
a||------------------9-------------------9p7/5h7p5h7--757\9-------9---------------------------9p7/5h7p5h7--------|
e||--------------------------------------------------------------------------------------------------------------|




e||------------------------10h12-12^-12p10---------------------10h12-13^-13^------------------------------------------17----17----17------|
b||------------10h12p10h12-----------------12p10---10h12p10h12----------------------------------------------15h17-17^----17^---17^---17^--|
g||-7h9p7h9\11-----------------------------------11---------------------------------------------14h16p14h16-------------------------------|
d||------------------------------------------------------------------------------12h14p12h14\16-------------------------------------------|
a||--------------------------------------------------------------------------\14----------------------------------------------------------|
e||---------------------------------------------------------------------------------------------------------------------------------------|



outro:
                                         (bass part)
e||---------12-------------------------------------|
b||----15b^----15p12-------------------------------|
g||------------------14b^-14p12----12--------------|
d||-----------------------------14----14-----------|
a||------------------------------------------------|
e||--0---------------------------------------------|



thnx ! try it !





Comments


Popular Pot tabs & chords
Yugyugan Na Bass Tabs
Panaginip Chords
Yugyugan Na Chords
Fyb Tabs
Love To See Tabs
Panaginip 1 Tabs
Ulitin Tabs
Yugyugan Na Tabs
Ulitin Ukulele
Yugyugan Na Ukulele


Song lyrics



↑ Back to top | Tablatures and chords are parodies/interpretations of the original songs. You may use it for private study, scholarship, research or language learning purposes only
© 2014 AZChords.com Contact us | Privacy policy | DMCA | Add/correct tabs | Request tabs | Top 50 tabs