» » »

Pot, Fyb Tabs (ver.1)

Artists:  A B C D E F G H I J K L M N O P Q R S T U V W X Y Z # 

Fyb Tabs (ver.1)

Pot Tabs
 Rating:
4.3/5 (6 votes)
Fyb lessons Tabs too difficult? Try these video lessons and learn fast
1
                                                      F.Y.B.


Tablature legend
/ - slide
b -  bend
h - hammer

intro:

    FM7         Em7    EbM7      Dm7         Am7     Dm7     Em7
e---------------------------------------------------------------------|
b-------10--------8-------8--------6-------------5-------6------6/8---|
g-------9---------7-------7--------5-----5-------5-------5------5/7---|
d----10---------------------------------7-----------------------------|
a--8------------7-------6--------5-------------7------5---------5/7---|
E--------------------------------------------5------------------------|


    FM7         Em7      EbM7     Dm7           Am7     Dm7    Em7
e----------------------------------------------------------------------7---|
b-------10--------8---8----8--8------6--------------5-----6---------7------|
g-------9---------7---7----7--7------5------5-------5-----5-------7--------|
d----10----------------------------------7----------------------9----------|
a--8------------7---7----6--6------5--------------7-----5------------------|
E-----------------------------------------------5---------------0----------|


stanza:
just do the funky strumming, too lazy to type it!


    Am7     Dm7     G     Em7
e--5------5--4/5----3-----7---10-------------!
b--5------6--5/6----3-----8---8--------------!
g--5------5--4/5----4-----7---7--------------!
d--5------7---------5-----9---9--------------!    2x
a--7------5---------5-----7---7--------------!
E--5----------------3------------------------!

pre chorus:

   Dm7    Em7     G       Am7
e--8------7-------3-------5------------------!
b--6------8-------3-------5------------------!
g--5------7-------4-------5------------------!
d--7------9-------5-------7------------------!    2x
a--5------7-------5-------7------------------!
E-----------------3-------5------------------!

chorus:


   FM7          Em7     EbM7     Dm7         Am7     Dm7     Em7
e--------------------------------------------------------------------|
b-------10--------8-------8--------6-----------5------6------6/8-----|
g-------9---------7-------7--------5-----5-----5------5------5/7-----|
d----10---------------------------------7----------------------------|
a--8------------7-------6--------5------------7------5-------5/7-----|
E--------------------------------------------5-----------------------|


    FM7         Em7      EbM7      Dm7          Am7    Dm7    Em7
e----------------------------------------------------------------------7---|
b-------10--------8---8----8--8------6--------------5-----6---------7------|
g-------9---------7---7----7--7------5------5-------5-----5-------7--------|
d----10----------------------------------7----------------------9----------|
a--8------------7---7----6--6------5--------------7-----5------------------|
E------------------------------------------------5--------------0----------|

stanza:
pre chorus:
chorus:
stanza:

refrain:

    FM7        CM7
e---7--------3-----------!
b---9--------5-----------!
g---8--------4-----------!   4x
d---9--------5-----------!
a---7--------3-----------!
E------------------------!

adlib:   chords at adlib   just adjust the refrain in 10th fret
(thats guitar 2)
chords:  GM7 - DM7  (3x)
         GM7 - F#m7

e--------------------------------------------------------------------|
b------------------7h10-7----7h8-----7-------------------------------|
g-------------7h9------------------9-----7--9--6--7------------------|
d--------7h9------------------------------------------9--7--9--------|
a---7h9--------------------------------------------------------------|
E--------------------------------------------------------------------|

------------------------------------|
------------------------------------|
------------------------------------|
--9/12--11--9---7h9---7-------------|
----------------------------7b---5--|
------------------------------------|

e---------------------------------------------------------|
b---------------------------------------------------------|
g---------------------------------------------------------|
d----------------------------------9--12--11--9------9----|
a------------9h10h12---9h10h12------------------12--------|
E---10h12-------------------------------------------------|

-------------------------------------------|
-------------------------------------------|
------------------------14-----------------|
--------12--14--14/16------16--14---16-16--|
-12/14-------------------------------------|
-------------------------------------------|

last stanza:
2 frets higher than original stanza chords


    Bm7    Em7           A        F#m7
e----7------7--6/7-------5--------9--12-----------!
b----7------8--7/8-------5--------10-10-----------!
g----7------7--6/7-------6--------9--9------------!
d----7------9------------7--------11-11-----------!     2x
a----9------7------------7--------9--9------------!
E----7-------------------5------------------------!


outro:


e-----10--7-7--------9---9---9--------5-5-5-----7-7-7------|
b-----8---8-8--------10--10--10-------5-5-5-----7-7-7------|
g-----7---7-7--------9---9---9--------6-6-6-----7-7-7------|
d-----9---9-9--------11--11--11-------5-5-5-----7-7-7------|
a-----7---7-7--------9---9---9--------7-7-7-----9-9-9------|
E--------------------------------------5-5-5-----7-7-7-----|

e-----10--7-7--------9---9---9---------------------------------------7---|
b-----8---8-8--------10--10--10----------------5-------5/7--------7------|
g-----7---7-7--------9---9---9---------------5---------5/7------7--------|
d-----9---9-9--------11--11--11-----------5-----------5/7----7-----------|
a-----7---7-7--------9---9---9----------7-------------7/9----------------|
E--------------------------------------5---------------5/7---------------|


the end....
            
Submit corrections

comments powered by Disqus
↑ Back to top | Pot Tabs for Fyb. Lyrics for acoustic guitar and electric guitar. 1 Tablatures and chords are parodies/interpretations of the original songs. You may use it for private study, scholarship, research or language learning purposes only