» » »

Pot, Fish Cake Tabs (ver.1)

Artists:  A B C D E F G H I J K L M N O P Q R S T U V W X Y Z # 

Fish Cake Tabs (ver.1)

Pot Tabs
Rating:
5/5 (1 vote)
Fish Cake lessons Tabs too difficult? Try these video lessons and learn fast
                                       "FISH CAKE" BY P.O.T.
    
      NOTE: FOR THOSE WHO EMAIL ME AND REQUESTING FOR TABS>>>
                 "PUTANG INA SALAMAT SA TIWALA NYO"
                 
     NOTE: TNX TO KARL ROY,,, FOR YOUR HOSPITALITY... MAPA P.O.T 
    OR KAPATID ASTIG PALAGE ANG BANDA MO... SEE U AROUND ULIT!!!

  

  intro:  W/WAH
e|-----------------------------------------------|
B|-----------------------------------------------|
G|----5---------5---------5----5-7b-7b-5b--------|
D|--7---7-5---7---7-4---7---7-------------7b-7b--|
A|-----------------------------------------------|
E|-----------------------------------------------|
          W/WAH 
e|-----------------------------------------------|
B|-----------------------------------------------|
G|----5---------5---------5----5-7b-7b-7b-7bh6b--|
D|--7---7-5---7---7-4---7---7--------------------|
A|-----------------------------------------------|
E|-----------------------------------------------|

 Fish cake…  (repeat) w/wah
e|-X-X-X-X-14-15-X-X-14-X-14-X-14-X-14-X-15-13-X-X-14-X-14--|
B|----------------------------------------------------------|
G|----------------------------------------------------------|
D|----------------------------------------------------------|
A|----------------------------------------------------------|
E|----------------------------------------------------------|

         W/WAH (repeat)
e|-----------------------------------------------|
B|-----------------------------------------------|
G|----5---------5---------5----5-7b-7b-5b--------|
D|--7---7-5---7---7-4---7---7-------------7b-7b--|
A|-----------------------------------------------|
E|-----------------------------------------------|

          (repeat) w/wah
e|-X-X-X-X-14-15-X-X-14-X-14-X-14-X-14-X-15-13-X-X-14-X-14--|
B|----------------------------------------------------------|
G|----------------------------------------------------------|
D|----------------------------------------------------------|
A|----------------------------------------------------------|
E|----------------------------------------------------------|

Oh yeah! You taste so good… X2
e|-----------5-----------3----------5------------3---|
B|-----------5-----------3----------5------------3---|
G|---------------------------------------------------|
D|--7-7-7-7-----7-7-7-7-----7-7-7-7-----7-7-7-7------|
A|--7-7-7-7-----7-7-7-7-----7-7-7-7-----7-7-7-7------|
E|--5-5-5-5-----5-5-5-5-----5-5-5-5-----5-5-5-5------|
  
      W/WAH (repeat)
e|-----------------------------------------------|
B|-----------------------------------------------|
G|----5---------5---------5----5-7b-7b-5b--------|
D|--7---7-5---7---7-4---7---7-------------7b-7b--|
A|-----------------------------------------------|
E|-----------------------------------------------|

              (repeat) w/wah
e|-X-X-X-X-14-15-X-X-14-X-14-X-14-X-14-X-15-13-X-X-14-X-14--|
B|----------------------------------------------------------|
G|----------------------------------------------------------|
D|----------------------------------------------------------|
A|----------------------------------------------------------|
E|----------------------------------------------------------|

Oh yeah! You taste so good… X2
e|-----------5-----------3----------5------------3---|
B|-----------5-----------3----------5------------3---|
G|---------------------------------------------------|
D|--7-7-7-7-----7-7-7-7-----7-7-7-7-----7-7-7-7------|
A|--7-7-7-7-----7-7-7-7-----7-7-7-7-----7-7-7-7------|
E|--5-5-5-5-----5-5-5-5-----5-5-5-5-----5-5-5-5------|

Oh yeah! Trying to have… X2
e|--------------------------------------------------------|
B|--------------------------------------------------------|
G|--------------------------------------------------------|
D|-3-3-3-3-3-3-3-3-----------------5-7-----5-3------------|
A|-3-3-3-3-3-3-3-3-2-2-2-2-2-2-2-2-5-7---------5-3-5------|
E|-1-1-1-1-1-1-1-1-0-0-0-0-0-0-0-0-3-5----------------3-5-|
               <<<>>>
            

comments powered by Disqus
↑ Back to top | Pot Tabs for Fish Cake. Lyrics for acoustic guitar and electric guitar. Tablatures and chords are parodies/interpretations of the original songs. You may use it for private study, scholarship, research or language learning purposes only