>
 >
Arriving Somewhere But Not Here

Arriving Somewhere But Not Here Bass Tabs

Porcupine Tree - Arriving Somewhere But Not Here chords, tabs, tablatures, lyrics

Guitar lessons | Add/correct | Request | Top 50 tabs Artists:  A B C D E F G H I J K L M N O P Q R S T U V W X Y Z 0-9

Arriving Somewhere But Not Here Bass Tabs – Porcupine Tree

CD, Sheet music, Poster

Do you like Arriving Somewhere But Not Here? Share with your friends now
Bass TabsBass Tabs v2ChordsTabsUkulele
Band: Porcupine Tree
Bassist: Colin Edwin
Tuning: D-A-D-G

Various keyboards and guitar effects play in beginning before bass enters

G||------|------|------|------|------|------|------|------|------|------|------|
D||------|------|------|------|------|------|------|------|------|------|------|
A||------|------|------|------|------|------|------|------|------|------|------|
D||------|------|------|------|------|------|------|------|------|------|------|

------|------|------|------|------|-------------------|------------------|
------|------|------|------|------|-------------------|------------------|
------|------|------|------|------|-------------------|------------------|
------|------|------|------|------|--0----------------|------------------|

------------------|------------------|------------------|------------------|
------------------|------------------|------------------|------------------|
------------------|------------------|------------------|------------------|
------------------|------------------|------------------|------------------|

------------------|------------------|------------------|------------------|
------------------|------------------|------------------|------------------|
------------------|------------------|------------------|------------------|
------------------|------------------|------------------|------------------|

------------------|------------------|-------------------|------------------|
------------------|------------------|-------------------|------------------|
------------------|------------------|--1----------------|------------------|
------------------|------------------|-------------------|------------------|

-------------------|------------------|-------------------|------------------|
-------------------|------------------|-------------------|------------------|
--5----------------|------------------|-------------------|------------------|
-------------------|------------------|--0----------------|------------------|

------------------|------------------|------|------|------|------|------|------|
------------------|------------------|------|------|------|------|------|------|
------------------|------------------|------|------|------|------|------|------|
------------------|------------------|------|------|------|------|------|------|

------|------|------|------|------|------|------|------|------|------|------|
------|------|------|------|------|------|------|------|------|------|------|
------|------|------|------|------|------|------|------|------|------|------|
------|------|------|------|------|------|------|------|------|------|------|

------|------|------|------|------|------|------|------|------|------|------|
------|------|------|------|------|------|------|------|------|------|------|
------|------|------|------|------|------|------|------|------|------|------|
------|------|------|------|------|------|------|------|------|------|------|

------||-------|------|------|------|------|------|------|-----||----|----|----|
------||*------|------|------|------|------|------|------|----*||----|----|----|
------||*------|------|------|------|------|------|------|----*||----|----|----|
------||-------|------|------|------|------|------|------|-----||----|----|----|

----|----|----|----|-------------------|-------------------|------------------|
----|----|----|----|-------------------|-------------------|------------------|
----|----|----|----|------------3------|--/5---------------|------------------|
----|----|----|----|-------------------|-------------------|------------------|

-------------------|-------------------|-------------------|-------------------|
-------------------|-------------------|-------------------|-------------------|
--5----------------|----------5--------|--/8---------------|----------8--------|
-------------------|-------------------|-------------------|-------------------|

--------------------|--------------------|--------------------|
--------------------|--------------------|--------------------|
--/13---------------|----------13--------|--12----------------|
--------------------|--------------------|--------------------|


                                                           Chorus
------------------|-------------------|------------------|-------------------|
------------------|-------------------|------------------|-------------------|
------------------|-------------------|------------------|--1----------------|
------------------|--0----------------|------------------|-------------------|

-------------------|-------------------|------------------|-------------------|
-------------------|-------------------|------------------|--5----------------|
----------1--------|--/3---------------|------------------|-------------------|
-------------------|-------------------|------------------|-------------------|

------------------|------------------|--------------------|-------------------|
------------------|------------------|--------------------|-------------------|
------------------|------------------|----------10\-------|--1----------------|
------------------|------------------|--------------------|-------------------|

-------------------|-------------------|------------------|-------------------|
-------------------|-------------------|------------------|--5----------------|
--------------1/---|--3----------------|------------------|-------------------|
-------------------|-------------------|------------------|-------------------|

--------------------|--4----------------|------5----4---------|
--------------5--7--|-------------------|----------------5\---|
--------------------|-------------------|---------------------|
--------------------|-------------------|---------------------|

-------------------|-------------------|-------------------|-------------------|
-------------------|-------------------|-------------------|-------------------|
--1----------------|--------------1/---|--3----------------|----------3\-------|
-------------------|-------------------|-------------------|-------------------|

Guitar Solo

----------------------|----------------------|----------------------|
----------------------|----------------------|--------------3-------|
--1------1----1-------|--1------1----1-------|--1------1-------1----|
-----------------3----|-----------------3----|----------------------|

-------------------------|-----------------------|-----------------------|
--------3----------------|-----------------------|-----------------------|
--1--1-----1-------1-----|--3/-5----5----5-------|--3/-5----5----5-------|
----------------3-----0--|------------------0----|------------------0----|

-----------------------|-----------------------|----------------------|
-----------------------|-----------------------|----------------------|
--3/-5----5----5-------|--3/-5----5-------3----|--1------1----1-------|
------------------0----|---------------0-------|-----------------3----|

----------------------|----------------------|-----------------------|
---------3----3-------|----------------------|-----------------------|
--1--------------1----|--1------1----1-------|--1------1-------3-----|
----------------------|-----------------3----|--------------0-----0--|

-----------------------|-----------------------|------------------------|
-----------------------|-----------------------|------------------------|
--3/-5----5----5-------|--3/-5----5----5-------|--3/-5----5-------3/-5--|
------------------0----|------------------0----|---------------0--------|

-------------------------|----------------------|----------------------|
--3--3-------------------|----------------------|----------------------|
--------5--3--5--5-------|--1------1----1-------|--1------1----1-------|
--------------------0----|-----------------3----|-----------------3----|

----------------------|-----------------------|-----------------------|
----------------------|-----------------------|-----------------------|
--1------1----1-------|--1------1-------3-----|--3/-5----5----5-------|
-----------------3----|--------------0-----0--|------------------0----|

-----------------------|-----------------------|-----------------------|
-----------------------|-----------------------|-----------------------|
--3/-5----5----5-------|--3/-5----5----5-------|--3/-5----5-------3----|
------------------0----|------------------0----|---------------0-------|

----------------------|--------------5-------|--------------10-------|
--3------3-------3----|--3------3-------3/---|--8------8--------8----|
--------------3-------|----------------------|-----------------------|
----------------------|----------------------|-----------------------|

---------------------|----------------------|-----------------------|
--------8----8-------|----------------------|-----------------------|
----------------8/---|----------------3h-5--|--5------5-------3h-5--|
---------------------|--0------0------------|--------------0--------|

----------------------|-----------------------|----------------------|
----------------------|-----------------------|----------------------|
--5------5-------3----|--3/-5----5-------3----|--1------1----1-------|
--------------0-------|---------------0-------|-----------------3----|

----------------------|----------------------|-----------------------|
--------------3-------|----------------------|-----------------------|
--1------1-------1----|--1------1----1-------|--1------1-------1-----|
----------------------|-----------------3----|--------------3-----0--|

-----------------------|-----------------------|-----------------------|
-----------------------|-----------------------|-----------------------|
--3/-5----5----5-------|--3/-5----5----5-------|--3/-5----5----5-------|
------------------0----|------------------0----|------------------0----|

-----------------------|----------------------|----------------------|
-----------------------|----------------------|----------------------|
--3/-5----5-------3----|--1------1----1-------|--1------1----1-------|
---------------0-------|-----------------3----|-----------------3----|

----------------------|-----------------------|-----------------------|
--------------3-------|-----------------------|-----------------------|
--1------1-------1----|--1------1-------1-----|--3/-5----5----5-------|
----------------------|--------------3-----0--|------------------0----|

------------------------|-----------------------|-------------------------|
------------------------|-----------------------|-------------------------|
--3/-5----5-------3h-5--|--3/-5----5----5-------|--3--5--5--5-------3-----|
---------------0--------|------------------0----|----------------0-----0--|

----------------------|----------------------|----------------------|
----------------------|----------------------|----------------------|
--1------1----1-------|--1------1----1-------|--1------1----1-------|
-----------------3----|-----------------3----|-----------------3----|

-----------------------|-----------------------|-----------------------|
-----------------------|-----------------------|-----------------------|
--1------1-------1-----|--3/-5----5----5-------|--3/-5----5----5--3----|
--------------3-----0--|------------------0----|-----------------------|

-----------------------|-----------------------|--------------5-------|
-----------------------|-----------------------|--3------3-------3----|
--3/-5----5----5-------|--3/-5----5-------3----|----------------------|
------------------0----|---------------0-------|----------------------|

-------------5-------|----------------------|------------------------|
--------3-------3/---|--8------8-------8----|--8h-10----8------------|
---------------------|--------------8-------|------------------8-----|
---------------------|----------------------|---------------------0--|

-----------------------|-----------------------|----------------------|
-----------------------|-----------------------|----------------------|
--3/-5----5----5-------|--3/-5----5----5-------|--3/-5----5-----------|
------------------0----|------------------0----|---------------0------|

Chorus

------------------------|----------------------|-----------------------|
------------------------|----------------------|--------------3--------|
--3/-5----5-------3-----|--1------1-------1----|--1------1-------1-----|
---------------0-----0--|--------------3-------|--------------------3--|

----------------------|----------------------|----------------------|
----------------------|---------5------------|----------------------|
--3------3-------3----|--3--------------3----|----------------------|
--------------5-------|--------------0-------|--5------5----5--5----|

----------------------|----------------------|----------------------|
----------------------|----------------------|----------------------|
----------------------|----------------------|----------------------|
--5------5----0--5----|--5------5----0--0----|--5------5----0--5----|

----------------------|---------------------|----------------------|
--------------3-------|---------3-----------|--------------5-------|
--1------1-------1----|--1------------------|--3------3-------3----|
----------------------|----------------3----|----------------------|

-----------------------|---------------------|----------------------|
-----------------------|---------------------|----------------------|
--3--3----3------------|---------------------|----------------------|
---------------0--3----|--5------5------5----|--5------5----0--5----|

----------------------|-----------------------|----------------------|
----------------------|-----------------------|--------------3-------|
----------------------|-----------------------|--1------1-------1----|
--5------5----0--0----|--3/-5----5----0--3----|----------------------|

-----------------------|----------------------|-----------------------|
-----------------------|----------------------|-----------------------|
--1------1-------1-----|--3------3-------3----|--3------3-------------|
--------------3-----0--|--------------5-------|--------------5--5--5--|

Bridge

-------------------|------------------||-------------------|-----||
-------------------|------------------||*------------------|----*||
-------------------|------------------||*------------------|----*||
--0----------------|------------------||-------------------|-----||

-------------------|------------------|------------------|-------------------||
*------------------|------------------|------------------|------------------*||
*------------------|------------------|------------------|------------------*||
-------------------|------------------|------------------|-------------------||

---------------------------|--------------------------|
*--------------------------|--------------------------|
*--3h-5--5--5--5--5--5--5--|--5--5--5--5--5--5--5--5--|
---------------------------|--------------------------|

--------------------------|---------------------------||
--------------------------|--------------------------*||
--3h-5--5--5--5--5--5--5--|--5--5--5--5--5--5--5--0--*||
--------------------------|---------------------------||

--5h-7--7--7--7--7--7--7--|--7--7--7--7--7--6--5-----|
--------------------------|-----------------------7--|
--------------------------|--------------------------|
--------------------------|--------------------------|

--5h-7--7--6--6--6--5--5--|--5-----------------------|
--------------------------|-----7--7--7--6--5--------|
--------------------------|--------------------8--5--|
--------------------------|--------------------------|

--------------------------|--------------------------|
--------------------------|--------------------------|
--3h-5--5--5--5--5--5--5--|--5--5--5--5--5--5--5--0--|
--------------------------|--------------------------|

--------------------------|--------------------------|-----------------------|
--------------------------|--------------------------|-----------------------|
--3h-5--5--5--5--5--5--5--|--8--5--5--8--5--5--8--5--|-----------------------|
--------------------------|--------------------------|--0------0--1p-0----0--|

------------------------|-----------------------|--------------------------|
------------------------|-----------------------|--------------6-----------|
------------------------|-----------------------|-----------6-----6--------|
----0----0--1p-0--1p-0--|----0----0--1p-0----0--|----0h6h7-----------7--6--|

|------------------------|------------------------|-----------------------|
|*-----------------------|------------------------|-----------------------|
|*-----------------------|------------------------|-----------------------|
|-----0----0--1p-0----0--|----0----0--1p-0--1p-0--|----0----0--1p-0----0--|

---------------------------||-------------------------|
--------------6-----------*||-------------------------|
-----------6-----6--------*||--------6-----5--5----6--|
----0h6h7-----------7--6---||--0--0-----0-------------|

-------------------------|-------------------------|-------------------------|
-------------------------|-------------------------|-------------------------|
----5--------------------|--------6-----5--5----6--|----5--------5--6--5-----|
---------0-0-0--0--0--0--|--0--0-----0-------------|---------6h7----------6--|

-------------------------|-------------------------|------------------------|
-------------------------|-------------------------|------------------------|
--------6-----5--5----6--|----5--------------------|--------6-----5------0--|
--0--0-----0-------------|---------0-0-0--0--0--0--|--0--0-----0------------|

--------------------10~---|-------------------------|-------------------------|
-----7--6--------9--------|-------------------------|-------------------------|
--8--------7--8-----------|--------6-----5--5----6--|----5--------------------|
--------------------------|--0--0-----0-------------|---------0-0-0--0--0--0--|

-------------------------|-------------------------|-------------------------|
-------------------------|-------------------------|-------------------------|
--------6-----5--5----6--|----5--------5--6--5-----|--------6-----5--5----6--|
--0--0-----0-------------|---------6h7----------6--|--0--0-----0-------------|

-------------------------|------------------------|--------------------10~---|
-------------------------|------------------------|-----7--6--------9--------|
----5--------------------|--------6-----5------0--|--8--------7--8-----------|
---------0-0-0--0--0--0--|--0--0-----0------------|--------------------------|

|---------------------------|--------------------------|
|*--------------------------|--------------------------|
|*--5--5--5-----------------|--------------3--3--5--5--|
|------------5--5--5--6--6--|--6--7--7--7--------------|

--------------------------|--------------5--5--7--7---||
-----------5--5--5--6--6--|--6--7--7--7--------------*||
--8--8--8-----------------|--------------------------*||
--------------------------|---------------------------||

--7--7--7--7--7--7--7--7--|--7--7--7--7--7--6--5-----|
--------------------------|-----------------------7--|
--------------------------|--------------------------|
--------------------------|--------------------------|

--7--7--7--6--6--6--5--5--|--5-----------------------|-------------------------|
--------------------------|-----7--7--7--6--5--------|-------------------------|
--------------------------|--------------------8--5--|--3h-5--5----------------|
--------------------------|--------------------------|-----------5----5--6--6--|

--------------------------|--------------------------|
--------------------------|-----------5--5--5--6--6--|
--------------3--3--5--5--|--8--8--8-----------------|
--6--7--7--7--------------|--------------------------|

--------------5--5--7--7--|--------------------------|
--6--7--7--7--------------|--------------------------|
--------------------------|--1--1--1--1--1--1--1--1--|
--------------------------|--------------------------|

--------------------------|--------------------------|
--------------------------|--------------------------|
--1--1--1--1--1--1--1--1/-|--5--5--5--5--5--5--5--5--|
--------------------------|--------------------------|

--------------------------|--------------------------|
--------------------------|--3--3--3--3--3--3--3--3--|
--5--5--5--5--5--5--5--5--|--------------------------|
--------------------------|--------------------------|

--------------------------|--------------------------|
--3--3--3--3--3--3--3--3--|--7--7--7--7--7--7--7--7--|
--------------------------|--------------------------|
--------------------------|--------------------------|

--------------------------|--------------------------|
--7--7--7--7--7--7--7--7--|--8--8--8--8--8--8--8--8--|
--------------------------|--------------------------|
--------------------------|--------------------------|

--------------------------|----------------------------------|
--8--8--8--8--8--8--8--8/-|--12--12--12--12--12--12--12--12--|
--------------------------|----------------------------------|
--------------------------|----------------------------------|

----------------------------------|----------------------------------|
--12--12--12--12--12--12--12--12--|--15--15--15--15--15--15--15--15--|
----------------------------------|----------------------------------|
----------------------------------|----------------------------------|

----------------------------------|----------------------------------|
--15--15--15--15--15--15--15--15--|--14--14--14--14--14--14--14--14--|
----------------------------------|----------------------------------|
----------------------------------|----------------------------------|

----------------------------------|--14----------15----------14------|
--12--12--12--12--12--12--12--12--|------12--12------12--12------12--|
----------------------------------|----------------------------------|
----------------------------------|----------------------------------|

------15----------14------15------|--14----------15----------14------|
--12------12--12------12------12--|------12--12------12--12------12--|
----------------------------------|----------------------------------|
----------------------------------|----------------------------------|

------15----------14------15------|--14----------15----------14------|
--12------12--12------12------12--|------12--12------12--12------12--|
----------------------------------|----------------------------------|
----------------------------------|----------------------------------|

------15----------14------15------|--14------15------14------15------|
--12------12--12------12------12--|------12------12------12------12--|
----------------------------------|----------------------------------|
----------------------------------|----------------------------------|


                  Guitar Solo
--14------15------14------15------|----|----|----|----|----|----|----|----|----|
------12------12------12------12--|----|----|----|----|----|----|----|----|----|
----------------------------------|----|----|----|----|----|----|----|----|----|
----------------------------------|----|----|----|----|----|----|----|----|----|

----|----|----|----|----|----|----|----|----|----|----|----------------------|
----|----|----|----|----|----|----|----|----|----|----|----------------------|
----|----|----|----|----|----|----|----|----|----|----|--1------1----1-------|
----|----|----|----|----|----|----|----|----|----|----|-----------------3----|

----------------------|----------------------|-------------------------|
----------------------|---------3------------|--------3----------------|
--1------1----1-------|--1-----------1-------|--1--1-----1-------1-----|
-----------------3----|-----------------3----|----------------3-----0--|

-----------------------|-----------------------|-----------------------|
-----------------------|-----------------------|-----------------------|
--3/-5----5----5-------|--3/-5----5----5-------|--3/-5----5----5-------|
------------------0----|------------------0----|------------------0----|

------------------------|----------------------|----------------------|
------------------------|----------------------|----------------------|
--3/-5----5----5-----3--|--1------1----1-------|--1------1----1-------|
------------------0-----|-----------------3----|-----------------3----|

----------------------|-------------------------|-----------------------|
---------3------------|--------3----------------|-----------------------|
--1-----------1-------|--1--1-----1-------3-----|--3/-5----5----5-------|
-----------------3----|----------------3-----0--|------------------0----|

-----------------------|-----------------------|------------------------|
-----------------------|-----------------------|------------------------|
--3/-5----5----5-------|--3/-5----5----5-------|--3/-5----5-------3-----|
------------------0----|------------------0----|---------------0-----0--|

-----------------------|----------------------|----------------------|
-----------------------|----------------------|----------------------|
--1--1----1----1-------|--1------1----1-------|--1------1----1-------|
------------------3----|-----------------3----|-----------------3----|

-----------------------|-----------------------|-----------------------|
-----------------------|-----------------------|-----------------------|
--1------1-------3-----|--3/-5----5----5-------|--3/-5----5----5-------|
--------------0-----0--|------------------0----|------------------0----|

-----------------------|------------------------|----------------------|
-----------------------|------------------------|--3------3-------3----|
--3/-5----5----5-------|--3/-5----5----5-----3--|--------------3-------|
------------------0----|------------------0-----|----------------------|

--------------5-------|-----------------------|-----10--------------------|
--3------3-------3/---|--8------8-------8p-7--|--8------8p-7-----7--------|
----------------------|-----------------------|---------------8-----8-----|
----------------------|--------------8--------|------------------------8--|

-----------------------|------------------------|-----------------------|
-----------------------|----------3-------------|-----------------------|
--3/-5----5----5-------|--3/-5-------5-------3/-|--3/-5----5----5-------|
------------------0----|------------------0-----|------------------0----|

-------------------------|----------------------|----------------------|
--------3----------------|----------------------|---------3------------|
--3/-5-----5-------3-----|--1------1----1-------|--1-----------1-------|
----------------0-----0--|-----------------3----|-----------------3----|

----------------------|------------------------|-----------------------|
----------------------|--3----3----------------|-----------------------|
--1------1-------1----|----------1-------1-----|--3/-5----5----5-------|
--------------3-------|---------------3-----0--|------------------0----|

-----------------------|-----------------------|------------------------|
-----------------------|-----------------------|------------------------|
--3/-5----5----5-------|--3/-5----5----5-------|--3/-5----5----5-----3--|
------------------0----|------------------0----|------------------0-----|

-----------------------|----------------------|----------------------|
-----------------------|----------------------|--------------3-------|
--1--1----1----1-------|--1------1----1-------|--1------1-------1----|
------------------3----|-----------------3----|----------------------|

-----------------------|-----------------------|------------------------|
-----------------------|-----------------------|------------------------|
--1------1-------1-----|--3/-5----5----5-------|--3/-5----5-------3/-5--|
--------------3-----0--|------------------0----|---------------0--------|

-----------------------|------------------------|-----------------------|
-----------------------|------------------------|-----------------------|
--3/-5----5----5-------|--3/-5----5-------3-----|--1--1----1----1-------|
------------------0----|---------------0-----0--|------------------3----|

----------------------|----------------------|-----------------------|
----------------------|----------------------|---------3-------------|
--1------1----1-------|--1------1----1-------|--1--------------1-----|
-----------------3----|-----------------3----|--------------3-----0--|

-----------------------|-----------------------|-----------------------|
-----------------------|-----------------------|-----------------------|
--3/-5----5----5-------|--3/-5----5----5-------|--3/-5----5----5-------|
------------------0----|------------------0----|------------------0----|

------------------------|--------------5-------|--------------5-------|
------------------------|--3------3-------3----|--3------3-------3/---|
--3/-5----5----5-----3--|----------------------|----------------------|
------------------0-----|----------------------|----------------------|

--------------10-------|-------10-----------------|-----------------------|
--8------8--------8----|----8------8p-7-----7-----|-----------------------|
-----------------------|-----------------8--------|--3/-5----5----5-------|
-----------------------|-----------------------8--|------------------0----|

-----------------------|-----------------------|------------------------|
-----------------------|-----------------------|------------------------|
--3/-5----5----5-------|--3/-5----5----5-------|--3/-5----5-------3-----|
------------------0----|------------------0----|---------------0-----0--|

----------------------|----------------------|------------------------|
----------------------|----------------------|--------3---------------|
--1------1----1-------|--1------1----1-------|--1--1-----1-------1----|
-----------------3----|-----------------3----|----------------3-------|

-------------------------|-----------------------|-----------------------|
-------------------------|-----------------------|-----------------------|
--1--1-----1-------1-----|--3/-5----5----5-------|--3/-5----5----5-------|
--------3-------3-----0--|------------------0----|------------------0----|

-----------------------|------------------------|----------------------|
-----------------------|------------------------|----------------------|
--3/-5----5----5-------|--3/-5----5-------3-----|--1------1----1-------|
------------------0----|---------------0-----0--|-----------------3----|

----------------------|------------------------|------------------------|
----------------------|--------3---------------|------------------------|
--1------1----1-------|--1--1-----1-------1----|--1--1----1-------1-----|
-----------------3----|----------------3-------|---------------3-----0--|

-------------------------|-----------------------|-----------------------|
--------3----------------|-----------------------|-----------------------|
--3/-5-----5-------3/-5--|--3/-5----5----5-------|--3/-5----5----5-------|
----------------0--------|------------------0----|------------------0----|

-----------------------|----------------------|----------------------|
-----------------------|----------------------|----------------------|
--3/-5----5----5-------|--1------1----1-------|--1------1----1-------|
------------------0----|-----------------3----|-----------------3----|

-----------------------|-----------------------|-----------------------|
-----------------------|-----------------------|-----------------------|
--1------1----1-----1--|--1------1-------1-----|--3/-5----5----5-------|
-----------------3-----|--------------3-----0--|------------------0----|

-----------------------|-----------------------|-----------------------|
-----------------------|-----------------------|-----------------------|
--3/-5----5----5-------|--3/-5----5----5-------|--3/-5----5----5-------|
------------------0----|------------------0----|------------------0----|

----------------------|--------------5-------|-----------------------|
--3------3-------3----|--3------3-------3/---|--8------8-------8p-7--|
--------------3-------|----------------------|-----------------------|
----------------------|----------------------|--------------8--------|

-----10--------------------|----|----||
--8------8p-7-----7--------|----|----||
---------------8-----8-----|----|----||
------------------------8--|----|----||





Comments


Popular Porcupine Tree tabs & chords
Fear Of A Blank Planet Bass Tabs
Hatesong Bass Tabs
Lazarus Bass Tabs
Prodigal Bass Tabs
Meantime Chords
Last Chance To Evacuate Planet Earth Before It Is Recycled Intro Tabs
Lips Of Ashes 2 Tabs
Moonloop Coda Tabs
My Ashes Tabs
Octane Twisted 2 Tabs


Song lyrics



↑ Back to top | Tablatures and chords are parodies/interpretations of the original songs. You may use it for private study, scholarship, research or language learning purposes only
© 2014 AZChords.com Contact us | Privacy policy | DMCA | Add/correct tabs | Request tabs | Top 50 tabs