» » »

Hero Tabs (ver.3)

Artists:  A B C D E F G H I J K L M N O P Q R S T U V W X Y Z # 

Hero Tabs (ver.3)

Pop Evil
Rating:
5/5 (1 vote)

Hard to play? Try these video lessons and learn fast.
                Tuning: Drop D

Intro
|-------------------------------------|
|-------------------------------------|
|-----------------------------------9-|
|-----8---8/9---8---8---8---8---8-----|
|-0h6---6-----6---6---6---6---6---6---|
|-------------------------------------|

|-----------------------------------------|
|-----------------------------------------|
|-----------------------------------------|
|-----8---8/9---8---8---8---8----14----14-|
|-0h6---6-----6---6---6---6---12----12----|
|-----------------------------------------|

|---------------------------------------------|
|---------------------------------------------|
|---------------------------------------------|
|-10-10-12-0-10-10-12-0-10-10-12-0-10-10-12-0-|
|-10-10-12-0-10-10-12-0-10-10-12-0-10-10-12-0-|
|-10-10-12-0-10-10-12-0-10-10-12-0-10-10-12-0-|

|---------------------------------|
|---------------------------------|
|---------------------------------|
|-5-5-7-0-5-5-7-0-5-5-7-0-5-5-7-0-|
|-5-5-7-0-5-5-7-0-5-5-7-0-5-5-7-0-|
|-5-5-7-0-5-5-7-0-5-5-7-0-5-5-7-0-|

Verse
|---------------------------------------------------------------------|
|---------------------------------------------------------------------|
|---------------------------------------------------------------------|
|-5-5---5-7---5-5---5-7---5-5---5-7---5-5-7-0-5-5-7-0-5-5-7-0-5-5-7-0-|
|-5-5---5-7---5-5---5-7---5-5---5-7---5-5-7-0-5-5-7-0-5-5-7-0-5-5-7-0-|
|-5-5---5-7---5-5---5-7---5-5---5-7---5-5-7-0-5-5-7-0-5-5-7-0-5-5-7-0-|
  . .   . .   . .   . .   . .   . .

|---------------------------------------------------------|
|---------------------------------------------------------|
|---------------------------------------------------------|
|-5-5------5-7------5-5------5-7------5-5------5-7--7v----|
|-5-5-5570-5-7-5570-5-5-5570-5-7-5570-5-5-5570-5-7--------|
|-5-5------5-7------5-5------5-7------5-5------5-7--------|
  . . .... . .      . . .... . .      . . .... . .

Chorus
|-----------------------------------------------------------------|
|-----------------------------------------------------------------|
|---------------------------------5-5-5-5-5-5-5-5-3-3-3-3-3-3-3-3-|
|-5-5-7-0-5-5-7-0-5-5-7-0-5-5-7-0-5-5-5-5-5-5-5-5-3-3-3-3-3-3-3-3-|
|-5-5-7-0-5-5-7-0-5-5-7-0-5-5-7-0-3-3-3-3-3-3-3-3-1-1-1-1-1-1-1-1-|
|-5-5-7-0-5-5-7-0-5-5-7-0-5-5-7-0---------------------------------|

|-----------------------------------------------------------------|
|-----------------------------------------------------------------|
|-7-7-7-7-7-7-7-7-9-9-9-9-9-9-9-9-5-5-5-5-5-5-5-5-3-3-3-3-3-3-3-3-|
|-7-7-7-7-7-7-7-7-9-9-9-9-9-9-9-9-5-5-5-5-5-5-5-5-3-3-3-3-3-3-3-3-|
|-5-5-5-5-5-5-5-5-7-7-7-7-7-7-7-7-3-3-3-3-3-3-3-3-1-1-1-1-1-1-1-1-|
|-----------------------------------------------------------------|

Solo
Coming Soon!
            
Hard to play? Try these video lessons and learn fast. | Correct




comments powered by Disqus
↑ Back to top | Tablatures and chords are parodies/interpretations of the original songs. You may use it for private study, scholarship, research or language learning purposes only