» » »

Polvo, Taste Of Your Mind Tabs (ver.1)

Artists:  A B C D E F G H I J K L M N O P Q R S T U V W X Y Z # 

Taste Of Your Mind Tabs (ver.1)

Polvo Tabs
 Rating:
4/5 (4 votes)
Taste Of Your Mind lessons Tabs too difficult? Try these video lessons and learn fast
                correctly. In any case, enjoy!

------------------------------------------------------------------------------

E--------(1)---------|
B--------(2)---------|
B--------(3)---------|
B--------(4)---------|
G--------(5)---------|
G--------(6)---------|

(1)
-----------------------------------------------------------------------|
-----------------------------------------------------------------------|
-----------------------------------------------------------------------|
----5--7--/--(10)--9-7-9--/--(10)--\--(9)--/--(10)--\--(9)-------------|
-----------------------------------------------------------------------|
-----------------------------------------------------------------------|

-------------------------------------------------------------|
-------------------------------------------------------------|
----7(Hm)----------------------------------------------------|
---------------9(Hm)----5--7-7--/--(10)--9-7-9---------------|
-------------------------------------------------------------|
-------------------------------------------------------------|

--------------------------|
--------------------------|
----3---3---3-3---3-------|
----3---3---3-3---3-------|
----0---0---0-0---0-------|
----0---0---0-0---0-------|

Repeat according to song.


(2)
------------------------------------------------------------------|
------------------------------------------------------------------|
------------------------------------------------------------------|
----5----7-7---5---7-7-5----10----10-10----10-10------------------|
----4----4-4---4---4-4-4----0------0---0------0--0----------------|
----4----4-4---4---4-4-4----0------0---0------0--0----------------|


(3)
-------------------------------------------------------------------------------------|
-------------------------------------------------------------------------------------|
-------------------------------------------------------------------------------------|
----0-0-0--5--/--(10)----7--\--(5)--/--(7)--\--(5)--/--(7)--\--(5)--/--(7)-----------|
----3-4-7----------------------------------------------------------------------------|
-------------------------------------------------------------------------------------|

--------------------------------------------------------------------------|
--------------------------------------------------------------------------|
--------------------------------------------------------------------------|
--------------------------5--/--(14)--14-14-15-14-15-17---17-17--17-17----|
--------------------------7--/--(16)--16-16-16-16-16-0-----0---0---0---0--|
----8--^--(10)------------------------------------------------------------|

-------------------------------------------------------------------------------------------|
-------------------------------------------------------------------------------------------|
----14-14-14-14-14-14-14-14-14-14-14-14-14-14----------------------------------------------|
----14-14-14-14-14-14-14-14-14-14-14-14-14-14----------------------------------------------|
----17-17-17-17-17-17-17-17-17-17-17-17-17-17----------------------------------------------|
-----------------------------------------------------------------------0-----0------17--\--|
            
Submit corrections

comments powered by Disqus
↑ Back to top | Polvo Tabs for Taste Of Your Mind. Lyrics for acoustic guitar and electric guitar. Tablatures and chords are parodies/interpretations of the original songs. You may use it for private study, scholarship, research or language learning purposes only