» » »

Polaris, Kissing Tabs (ver.1)

Artists:  A B C D E F G H I J K L M N O P Q R S T U V W X Y Z # 

Kissing Tabs (ver.1)

Polaris Tabs
Rating:
0/5 (0 votes)
Kissing lessons Tabs too difficult? Try these video lessons and learn fast
                -----------------------------|
-----------------------------|
-----0--------0--------------|   (bass in back)
----0-4------0-4-s9----------|(x2)
----------------0------------|
-0-3---0-2s3-----------------|

---------------------------------|
---------------------------------|
-----0--------0------------------|   (bass in back)
----0-4------0-4---2--2-2-(x1)---|
----------------0--2--2-2--------|
-0-3---0-2s3-------0--0-0--------|

---------------------------------------------------|
---------------------------------------------------|
---------------------------------------------------|
-10s12--12-15-14-12-15-17-15-14-12-----------------|
---------------------------------------------------|
---------------------------------------------------|

------------------------------------------------------|
------------------------------------------------------|
------------------------------------------------------|
-10s12--12-15-14-12-15-17s19-19-12-17s19-19-16--------|
------------------------------------------------------|
------------------------------------------------------|


--------------------------------------------------------------|
--------------------------------------------------------------|
--------------------------------------------------------------|
-12-19/21-21-12--17/19-16-12-19s21-21-12-17/19-16-12-19/21-21-|
--------------------------------------------------------------|
--------------------------------------------------------------|

---------------------------------------------------|
---------------------------------------------------|
---------------------------------------------------|
-10s12--12-15-14-12-15-17-15-14-12-----------------|
---------------------------------------------------|
---------------------------------------------------|

--------------------------------------------------|
--------------------------------------------------|
--------------------------------------------------|
-10s12--12-15-14-12-15-17s19-19-12-17s19-19-------|
--------------------------------------------------|
--------------------------------------------------|

---------------------------------------------------------|
---------------------------------------------------------|
---------------------------------------------------------|
-14-11-12--12-11-----------------------------------------|
----------------14-12------------------------------------|
---------------------------------------------------------|

--2-2-2-2-2-2-2-2--2-2-2-2-2-2-2-2-2-----2-2-2-2-2-2-2-2-2--------------------|
-0-0-0-0-0-0-0-0--3-3-3-3-0-0-0-0-0-----3-3-3-3-0-0-0-0-0---------------------|
------------------------------------------------------------------------------|
------------------------------------------------------------------------------|
------------------------------------------------------------------------------|
------------------------------------------------------------------------------|

-0-2-2-2-2-3-3-2-2-5-5-5---------------------------|
3-3-3-3-3-3-3-3-3-3-3-3----------------------------|
---------------------------------------------------|
---------------------------------------------------|
---------------------------------------------------|
---------------------------------------------------|

I'm not done with the tab.  Its about half the song right now, and the end is really 
but ill update when i tab the rest.  I just wanted to post it now for anyone interested.
            
Submit corrections

comments powered by Disqus
↑ Back to top | Polaris Tabs for Kissing. Lyrics for acoustic guitar and electric guitar. Tablatures and chords are parodies/interpretations of the original songs. You may use it for private study, scholarship, research or language learning purposes only