» » »

Polaris, Coronado Ii Tabs (ver.1)

Artists:  A B C D E F G H I J K L M N O P Q R S T U V W X Y Z # 

Coronado Ii Tabs (ver.1)

Polaris Tabs
 Rating:
4/5 (4 votes)
Coronado Ii lessons Tabs too difficult? Try these video lessons and learn fast
1
                Well, after spending a fair amount of time on this, it still doesn't sound quite right
sometimes. I've got all the bass notes down, its just those little details. Try it out
and post some corrections if you can tweak it any better.


Song Progression:
INTRO
VERSE
CHORUS(quick)
VERSE
BUILD UP
CHORUS
BRIDGE
VERSE
BUILD UP
CHORUS
BUILD UP CHORUS
FINAL CHORUS


Intro / Verse
|-6--6--6-6-6--6--6-6-4--4--4-4---6--6--6--6-6-6--6--6-6-6--6--6-6-4--4--4-4--6--6--6--6-6----
|-6--6--6-6-8--8--8-8-4--4--4-4---8--8--8--8-8-6--6--6-6-8--8--8-8-4--4--4-4--8--8--8--8-8----
|-7--7--7-7-8--8--8-8-5--5--5-5---8--8--8--8-8-7--7--7-7-8--8--8-8-x--x--x-x--8--8--8--8-8----
|-8--8--8-8-8--8--8-8-6--6--6-6---8--8--8--8-8-8--8--8-8-8--8--8-8-6--6--6-6--8--8--8--8-8----
|-8--8--8-8-6--6--6-6-6--6--6-6---6--6--6--6-6-8--8--8-8-6--6--6-6-6--6--6-6--6--6--6--6-6----
|-6--6--6-6-----------4--4--4-4----------------6--6--6-6-----------4--4--4-4------------------


Build Up
|-----
|-----
|-----
|-6---
|-6---
|-4---


Chorus
|---------------------------------------------------------
|---------------------------------------------------------
|---------------------------------------------------------
|--8--8--8--8--5--5--5--5--6--6--6--6--6--6--6--6---------
|--8--8--8--8--5--5--5--5--6--6--6--6--6--6--6--6---------
|--6--6--6--6--3--3--3--3--4--4--4--4--4--4--4--4---------


Guitar 2
|-6-----6-----6----------------|---------------10---6----------6---------
|----6-----6-----6----(repeat)-|(last time)---------------6--------------
|------------------------------|-----------------------------------------
|------------------------------|-----------------------------------------
|------------------------------|-----------------------------------------
|------------------------------|-----------------------------------------

End Chorus On
|----
|----
|----
|-8--
|-8--
|-6--

Bridge
|------------------------------------------
|------------------------------------------
|------------------------------------------
|--6--8--8--8--6------------(repeat) ------
|--4--6--6--6--4--8--8--8------------------
|-----------------6--6--6------------------


Immediate-Post-Bridge Guitar 2
|-6-----6-----6-----6--------------|---------------11--10---6--------------
|----6-----6-----6-----6--(repeat)-|(add in)-------------------6------------
|----------------------------------|----------------------------------------
|----------------------------------|----------------------------------------
|----------------------------------|----------------------------------------
|----------------------------------|----------------------------------------


End-of-build-up-chorus Guitar 2
|------6----------6--------6-----6-----6-----6-------
|-6---------6-----------6-----6-----6-----6----------
|----------------------------------------------------
|----------------------------------------------------
|----------------------------------------------------
|----------------------------------------------------
(then do Immediate-Post-Bridge Guitar 2)


Final Chorus
|----------------------------------------------------
|----------------------------------------------------
|--------------------------------------8--8--8--8----
|--8--8--8--8--5--5--5--5--6--6--6--6--8--8--8--8----
|--8--8--8--8--5--5--5--5--6--6--6--6--6--6--6--6----
|--6--6--6--6--3--3--3--3--4--4--4--4----------------

End on
|-----------------
|-----------------
|-----------------
|--8-----------8--
|--8--(ring)---8--
|--6-----------6--


It's kind of a low blow,
Not the one I got, but the one you gave.
It's really to soon to know,
How much of you will there be left for me to say.
He's a scallywag,
I have another friend that he did the same thing to,
And then he brags
And he'll kiss and tell me, kiss and tell me every time you do. 

Monte Carlo,
Coronado II,
And San Diego Zoo or a hundred nights with you won't change my mind.

You rang and she called early,
You were laughing and she was asking "can we still be friends".
You would like to think in Summer time you'll remember me,
So I'll never, never land where the stories never ever ever....... 

Monte Carlo,
Coronado II,
And San Diego Zoo or a hundred nights with you won't change my mind.
Hey Monte Carlo,
Coronado II,
And San Diego Zoo or a hundred nights with you won't change my mind,
Won't change my mind, won't change my mind.
            
Submit corrections

comments powered by Disqus
↑ Back to top | Polaris Tabs for Coronado Ii. Lyrics for acoustic guitar and electric guitar. 1 Tablatures and chords are parodies/interpretations of the original songs. You may use it for private study, scholarship, research or language learning purposes only