» » »

Poison The Well, Turn Down Elliot Bass tabs (ver.1)

Artists:  A B C D E F G H I J K L M N O P Q R S T U V W X Y Z # 

Turn Down Elliot Bass tabs (ver.1)

Poison The Well Tabs
 Rating:
4/5 (4 votes)
Turn Down Elliot lessons Tabs too difficult? Try these video lessons and learn fast
1
                Drop C Tuning (CGCF)

UPDATE: Changed the softer part of the song after closer listening.

|----|----|----|----|----|----|----|----|
|----|----|----|----|----|----|----|----|
|----|----|----|----|----|----|----|----|
|5-5-|5-5-|5-5-|5-5-|5-5-|5-5-|5-5-|5-5-|

|----|----|----|----|----|----|----|----|
|----|----|----|----|----|----|----|----|
|----|----|----|----|----|----|----|----|
|1-1-|1111|-1-1|1-1-|1-1-|1111|-1-1|1-1-|

|----|----|----|----|----|----|----|----|
|----|----|----|----|----|----|----|----|
|----|----|----|----|----|----|----|----|
|4-4-|4444|-4-4|4-4-|4-4-|4444|-4-4|4-4-|

|----|----|----|----|----|----|----|----|
|----|----|----|----|----|----|----|----|
|----|----|----|----|----|----|----|----|
|1-1-|1111|-1-1|1-1-|1-1-|1111|-1-1|1-1-|

|----|----|----|----|----|----|----|----|
|----|----|----|----|----|----|----|----|
|----|----|----|----|----|----|----|----|
|4-4-|4444|-4-4|4-4-|5-5-|5555|-5-5|1-1-|

|----|----|----|----|----|----|----|----|
|----|----|----|----|----|----|----|----|
|----|----|----|----|----|----|----|----|
|00--|00--|00--|00--|00--|00--|00--|00--|

|----|----|----|----|----|----|----|----|
|----|----|----|----|----|----|----|----|
|----|----|----|----|----|----|----|----|
|00--|00--|00--|00--|00--|00--|00--|00--|

|-----|-----|-----|-----|-----|-----|-----|-----|
|-----|-----|-----|-----|-----|-----|-----|-----|
|-----|-----|-----|-----|-----|-----|-----|-----|
|5-558|88777|5-558|88777|5-558|88777|5-558|88777|

|-----|-----|-----|-----|-----|-----|-----|-----|
|-----|-----|-----|-----|-----|-----|-----|-----|
|-----|-----|-----|-----|-----|-----|-----|-----|
|5-558|88777|5-558|88777|5-558|88777|5-558|88777|

|-----|-----|-----|-----|-----|-----|-----|-----|
|-----|-----|-----|-----|-----|-----|-----|-----|
|-----|-----|-----|-----|-----|-----|-----|-----|
|5-558|88777|5-558|88777|5-558|88777|5-558|88777|

|-----|-----|-----|-----|
|-----|-----|-----|-----|
|-----|-----|-----|-----|
|5-558|88777|5-558|887--|

|----|----|----|----|----|----|----|----|
|----|----|----|----|----|----|----|----|
|----|----|----|----|----|----|----|----|
|0---|----|----|----|----|----|----|----|

|----|----|----|----|----|----|----|----|
|----|----|----|----|----|----|----|----|
|----|----|----|----|----|----|----|----|
|1-1-|1111|-1-1|1-1-|1-1-|1111|-1-1|1-1-|

|----|----|----|----|----|----|----|----|
|----|----|----|----|----|----|----|----|
|----|----|----|----|----|----|----|----|
|4-4-|4444|-4-4|4-4-|4-4-|4444|-4-4|4-4-|

|----|----|----|----|----|----|----|----|
|----|----|----|----|----|----|----|----|
|----|----|----|----|----|----|----|----|
|1-1-|1111|-1-1|1-1-|1-1-|1111|-1-1|1-1-|

|----|----|----|----|----|----|----|----|
|----|----|----|----|----|----|----|----|
|----|----|----|----|----|----|----|----|
|4-4-|4444|-4-4|4-4-|5-5-|5555|-5-5|1-1-|

|----|----|----|----|----|----|----|----|
|----|----|----|----|----|----|----|----|
|----|----|----|----|----|----|----|----|
|0---|----|----|----|----|----|----|----|

|----|----|----|----|----|----|----|----|
|----|----|----|----|----|----|----|----|
|----|----|----|----|----|----|----|----|
|----|----|----|----|----|----|----|----|

|----|----|----|----|----|--7-|----|----|
|----|----|----|----|----|----|-7--|----|
|5555|5555|5555|5555|5555|55-5|5-55|5555|
|----|----|----|----|----|----|----|----|

|----|----|----|----|----|----|----|----|
|----|----|----|----|----|----|----|----|
|2222|2222|2222|2222|1111|1111|1111|1111|
|----|----|----|----|----|----|----|----|

|----|--7-|----|----|----|--7-|----|----|
|----|----|-7--|----|----|----|-7--|----|
|5555|55-5|5-55|5555|5555|55-5|5-55|5555|
|----|----|----|----|----|----|----|----|

|----|----|----|----|----|----|----|----|
|----|----|----|----|----|----|----|----|
|2222|2222|2222|2222|1111|1111|1111|1111|
|----|----|----|----|----|----|----|----|

|----|--7-|----|----|----|--7-|----|----|
|----|----|-7--|----|----|----|-7--|----|
|5555|55-5|5-55|5555|5555|55-5|5-55|5555|
|----|----|----|----|----|----|----|----|

|----|----|----|----|----|----|----|----|
|----|----|----|----|----|----|----|----|
|2222|2222|2222|2222|1111|1111|1111|1111|
|----|----|----|----|----|----|----|----|

|----|----|----|----|----|----|----|----|
|----|----|----|----|----|----|----|----|
|----|----|----|----|----|----|----|----|
|00--|00--|00--|00--|00--|00--|00--|00--|

|----|----|----|----|----|----|----|----|
|----|----|----|----|----|----|----|----|
|----|----|----|----|----|----|----|----|
|00--|00--|00--|00--|00--|00--|00--|00--|

|----|----|----|----|----|----|----|----|
|----|----|----|----|----|----|----|----|
|----|----|----|----|----|----|----|----|
|5555|5555|5555|5555|1111|1111|0000|0000|

|----|----|----|----|----|----|----|----|
|----|----|----|----|----|----|----|----|
|----|----|----|----|----|----|----|----|
|5555|5555|5555|5555|1111|1111|0000|0000|

|----|----|----|----|----|----|----|----|
|----|----|----|----|----|----|----|----|
|----|----|----|----|----|----|----|----|
|8888|8888|8888|8888|1111|1111|0000|0000|

|----|----|----|----|----|----|----|----|
|----|----|----|----|----|----|----|----|
|----|----|----|----|----|----|----|----|
|8888|8888|8888|8888|1111|1111|0000|0000|

|----|----|----|----|----|----|----|----|
|----|----|----|----|----|----|----|----|
|----|----|----|----|----|----|----|----|
|8888|8888|8888|8888|1111|1111|0000|0000|

|----|----|----|----|----|----|----|----|
|----|----|----|----|----|----|----|----|
|----|----|----|----|----|----|----|----|
|8888|8888|8888|8888|1111|1111|0000|0000|

|----|----|----|----|----|----|----|----|
|----|----|----|----|----|----|----|----|
|----|----|----|----|----|----|----|----|
|5---|----|----|----|----|----|----|----|
            
Submit corrections

comments powered by Disqus
↑ Back to top | Poison The Well Bass for Turn Down Elliot. Lyrics for acoustic guitar and electric guitar. 1 Tablatures and chords are parodies/interpretations of the original songs. You may use it for private study, scholarship, research or language learning purposes only