» » »

Parks And What You Meant To Me Tabs (ver.1)

Artists:  A B C D E F G H I J K L M N O P Q R S T U V W X Y Z # 

Parks And What You Meant To Me Tabs (ver.1)

Poison The Well
Rating:
5/5 (3 votes)

Hard to play? Try these video lessons and learn fast.
                Tuning: Drop D, down 1 whole step (CGCFAD)


Key:
pm/.  =  palm mute (as indicated)
~     =  ring out
x     =  dead note
()    =  ghost note/optional


  Part I (Clean)
D |-------------------|         |-------------------|
A |---------3---------|         |-------------------|
F |-----0------0------|         |----------------0--|
C |-------4------4----|  x 3    |--2----5----1------|
G |--5-------------5--|         |--2----5----1------|
C |--5----------------|         |--2----5----1------|

                                (Distortion)
D |-------------------|         |---------------|
A |---------3---------|         |---------------|
F |-----0------0------|         |---------------|
C |-------4------4----|  x 3    |--0--7--5--1~--|
G |--5-------------5--|         |--0--7--5--1~--|
C |--5----------------|         |--0--7--5--1~--|


  Part II 
D |----------------------------------------------|
A |----------------------------------------------|
F |----------------------------------------------|
C |--000-777-555-1111111----000-555-222-1111111--|  x 2
G |--000-777-555-1111111----000-555-222-1111111--|
C |--000-777-555-1111111----000-555-222-1111111--|


D |-----------------------------------------------------------|
A |-----------------------------------------------------------|
F |--777-999-777-11111111111111----777-999999-12121212121212--|
C |--xxx-xxx-xxx-x-x-x-x-x-x-x-----xxx-xxxxxx-x-x-x-x-x-x-x---|
G |--555-777-555-9-9-9-9-9-9-9-----555-777777-10101010101010--|
C |-----------------------------------------------------------|


D |----------------------------------------------------|
A |----------------------------------------------------|
F |--777-999-777-11111111111111----777-999999-8888888--|
C |--xxx-xxx-xxx-x-x-x-x-x-x-x-----xxx-xxxxxx-xxxxxxx--|
G |--555-777-555-9-9-9-9-9-9-9-----555-777777-6666666--|
C |----------------------------------------------------|


  Part III (NOTE: You may choose to play Part III with only the open chord, but I play it this way)
D |------------------------------------------------------------------------------------------|
A |------------------------------------------------------------------------------------------|
F |------------------------------------------------------------------------------------------|
C |--1-0-0-00----1-0-0--1-0-0--1-0-0-00----1-0-0--1-0-0--1-0-0-00----1-0-0--1-0-0--1-0-0-00--|
G |--1-0-0-00----1-0-0--1-0-0--1-0-0-00----1-0-0--1-0-0--1-0-0-00----1-0-0--1-0-0--1-0-0-00--|
C |--1-0-0-00----1-0-0--1-0-0--1-0-0-00----1-0-0--1-0-0--1-0-0-00----1-0-0--1-0-0--1-0-0-00--|
  pm . .         . .    . .    . .         . .    . .    . .         . .    . .    . . . ..

D |--------------------------------------------------------------------------|
A |--------------------------------------------------------------------------|
F |--------------------------------------------------------------------------|
C |--1-0-0--1-0-0--1-0-0-00----1-0-0--1-0-0----------------------------------|
G |--1-0-0--1-0-0--1-0-0-00----1-0-0--1-0-0-----5----555----5----555----555--|
C |--1-0-0--1-0-0--1-0-0-00----1-0-0--1-0-0--00---00-----00---00-----00------|
  pm . .    . .    . .         . .    . .    ..   ..     ..   ..     ..


Repeat Part II IN FULL


  Part IV (Clean, pretty accurate)                    Fill
D |---------5-------------------2----------|          |--------------------------|
A |-----3------3------------3-----3--------|          |--------------------------|
F |-------0-------0-----------0-----0------|          |--------------------------|
C |------------------0----------------(0)--|  x4      |--0-0~--0000000000000000--|
G |--5-------------------5-----------------|          |--0-0~--0000000000000000--|
C |--5-------------------5-----------------|          |--0-0~--0000000000000000--|
                                                      pm .


  Part V 
D |-------------------------------------|
A |--7--------7-------------------------|
F |--7--------7--------10--------7------|
C |--5-x16----0-x16----8--x16----5-x16--|  x3
G |--5--------0--------8---------5------|
C |--5--------0--------8---------5------|


  Part III (revisited)
D |------------------------------------------------------------------------------------------|
A |------------------------------------------------------------------------------------------|
F |------------------------------------------------------------------------------------------|
C |--1-0-0-00----1-0-0--1-0-0--1-0-0-00----1-0-0--1-0-0--1-0-0-00----1-0-0--1-0-0--1-0-0-00--|
G |--1-0-0-00----1-0-0--1-0-0--1-0-0-00----1-0-0--1-0-0--1-0-0-00----1-0-0--1-0-0--1-0-0-00--|
C |--1-0-0-00----1-0-0--1-0-0--1-0-0-00----1-0-0--1-0-0--1-0-0-00----1-0-0--1-0-0--1-0-0-00--|
  pm . .         . .    . .    . .         . .    . .    . .         . .    . .    . . . ..

D |--------------------------------|
A |----------------3333------------|
F |----------------2222------------|
C |--1-0-0--1-0-0--0000-xINFINITY--|
G |--1-0-0--1-0-0--0000------------|
C |--1-0-0--1-0-0--0000------------|
  pm . .    . .        


  Part VI (acoustic/clean -- figure out exact strumming)
D |------------------------------------------------------|
A |-------7--------------------------8~------------------|
F |-------7----7----10---------------7~------------------|
C |--5----5----0----8----------------5~------------------|
G |--5----5----0----8-----ending-on--6~------------------|
C |--5----5----0----8------------------------------------|



If this helps, please consider repaying the favor by taking a crack at other "Tear From
the Red" songs, especially Rings From Corona, Moments Over Exaggerrate, and Sticks and
Stones Never Made Sense. Comments, corrections, congratulations, and condolences are
            
Hard to play? Try these video lessons and learn fast. | Correct




comments powered by Disqus
↑ Back to top | Tablatures and chords are parodies/interpretations of the original songs. You may use it for private study, scholarship, research or language learning purposes only