» » »

Poison The Well, Parks And What You Meant To Me Bass tabs (ver.1)

Artists:  A B C D E F G H I J K L M N O P Q R S T U V W X Y Z # 

Parks And What You Meant To Me Bass tabs (ver.1)

Poison The Well Tabs
Rating:
0/5 (0 votes)
Hard to play? Try these video lessons and learn fast.
                UPDATE: Fixed to play in true Drop C tuning. (CGCF)

(Intro)

|----|----|----|----|----|----|----|----|
|----|----|----|----|----|----|----|----|
|----|----|----|----|----|----|----|----|
|2---|--5-|----|----|1---|----|----|----|

|----|----|----|----|----|----|----|----|
|----|----|----|----|----|----|----|----|
|----|----|----|----|----|----|----|----|
|5---|----|----|----|5---|----|----|----|

|----|----|----|----|----|----|----|----|
|----|----|----|----|----|----|----|----|
|----|----|----|----|----|----|----|----|
|5---|----|----|----|0--7|--5-|-1--|----|

(Verse 1)

|----|----|----|----|----|----|----|----|
|----|----|----|----|----|----|----|----|
|----|----|----|----|----|----|----|----|
|0007|7755|5111|1111|0005|5522|2111|1111| (x4)

(Breakdown)

This section is 'zoomed in' so I could fit in the faster rhythm.

|----|----|----|----|----|----|----|----|
|----|----|----|----|----|----|----|----|
|----|----|----|----|----|----|----|----|
|----|----|----|----|----|----|000-|000-|

|----|----|----|----|----|----|----|----|
|----|----|----|----|----|----|----|----|
|----|----|----|----|----|----|----|----|
|000-|0-0-|----|----|----|----|000-|000-| (x4)

(Verse 2)

|----|----|----|----|----|----|----|----|
|----|----|----|----|----|----|----|----|
|----|----|----|----|----|----|----|----|
|0007|7755|5111|1111|0005|5522|2111|1111| (x4)

(Bridge)

|----|----|----|----|----|----|----|----|
|----|----|----|----|----|----|----|----|
|----|----|----|----|----|----|----|----|
|5---|----|----|----|5---|----|----|----| (x3)

|----|----|----|----|----|----|----|----|
|----|----|----|----|----|----|----|----|
|----|----|----|----|----|----|----|----|
|5---|----|----|----|5---|----|----|02--|

|----|----|----|----|----|----|----|----|
|----|----|----|----|----|----|----|----|
|----|----|----|----|----|----|----|----|
|0000|0000|0000|0000|5555|5555|5555|5555|

|----|----|----|----|----|----|----|----|
|----|----|----|----|----|----|----|----|
|----|----|----|----|----|----|----|----|
|0000|0000|0000|0000|8888|8888|8888|8888|

|----|----|----|----|----|----|----|----|
|----|----|----|----|----|----|----|----|
|----|----|----|----|----|----|----|----|
|5555|5555|5555|5555|5555|5555|5555|5555|

|----|----|----|----|----|----|----|----|
|----|----|----|----|----|----|----|----|
|----|----|----|----|----|----|----|----|
|0000|0000|0000|0000|8888|8888|8888|8888|

|----|----|----|----|----|----|----|----|
|----|----|----|----|----|----|----|----|
|----|----|----|----|----|----|----|----|
|5555|5555|5555|5555|5555|5555|5555|5555|

|----|----|----|----|----|----|-  -  -  - |-  -  -  - |
|----|----|----|----|----|----|-  -  -  - |-  -  -  - |
|----|----|----|----|----|----|-  -  -  - |-  -  -  - |
|0000|0000|0000|0000|8888|8888|10 10 10 12|12 12 12 12|

|----|----|----|----|
|----|----|----|----|
|----|----|----|----|
|5555|5555|5555|5555| Slide from the 12's into the 5's here.

(Outro)

This part is 'zoomed in' again.

|----|----|----|----|----|----|----|----|
|----|----|----|----|----|----|----|----|
|----|----|----|----|----|----|----|----|
|000-|0-0-|----|----|----|----|000-|000-|

|----|----|----|----|----|----|----|----|
|----|----|----|----|----|----|----|----|
|----|----|----|----|----|----|----|----|
|000-|0-0-|----|----|----|----|000-|000-|

|----|----|----|----|----|----|----|----|
|----|----|----|----|----|----|----|----|
|----|----|----|----|----|----|----|----|
|000-|0-0-|----|----|----|----|000-|000-|

|----|----|----|----|----|----|----|----|
|----|----|----|----|----|----|----|----|
|----|----|----|----|----|----|----|----|
|000-|0-0-|----|----|----|----|000-|0-0-|

|----|----|----|----|----|----|----|----|
|----|----|----|----|----|----|----|----|
|----|----|----|----|----|----|----|----|
|0---|0---|0---|0---|0---|0---|0---|0---| (x however many times until you want to end 
song, because obviously you aren't going to have a studio fade ending if playing this live.)
            

comments powered by Disqus
↑ Back to top | Poison The Well Bass for Parks And What You Meant To Me. Lyrics for acoustic guitar and electric guitar. Tablatures and chords are parodies/interpretations of the original songs. You may use it for private study, scholarship, research or language learning purposes only