>
 >
Nerdy

Nerdy Guitar Tabs

Poison The Well - Nerdy chords, tabs, tablatures, lyrics

Guitar lessons | Add/correct | Request | Top 50 tabs Artists:  A B C D E F G H I J K L M N O P Q R S T U V W X Y Z 0-9

Nerdy Guitar Tabs – Poison The Well

CD, Sheet music, Poster

Do you like Nerdy? Share with your friends now
Bass TabsBass Tabs v2TabsTabs v2Tabs v3Tabs v4
Band: Poison the Well


  
This is PERFECT!!!!
 
Tuning:   D G C F A D

. = Palm mute

Verse [All palm muted]:
D:-----------------------------------------------------|
A:-----------------------------------------------------|
F:-----------------------------4444--444--4444-444-444-|
C:-5555--555--5555-555-555-----4444--444--4444-444-444-|
G:-5555--555--5555-555-555-----2222--222--2222-222-222-|
D:-3333--333--3333-333-333-----2222--222--2222-222-222-|

Verse(lead): all harmonics
D:-------------------------------------------------------|
A:-------------------4-----------------------------4-----|
F:-5--5--4--5--4--4-----4-------------4------4--4-----4--|
C:--5--5--5--5--4--4--4--4----4-5-4-5--5-4-5--5--5--5--5-|
G:-------------------------------------------------------|
D:-------------------------------------------------------|

Chorus:   (.=PM)    x2
D:-------------------------------------|
A:-----0-------0-------0---------------|
F:-----0-------0-------0---------------|
C:-5-555-5-4-444-4-2-222-2-10-10101010-|
G:-5-555-5-4-444-4-2-222-2-10-10101010-|
D:-3-333-3-2-222-2-0-000-0-8--8-8-8-8--|
         .       .       .           

Chorus(lead) : (.=PM)  x2
D:--------------------------------------------------|
A:--------------------------------------------------|
F:--------------------------------------55-45-55-45-|
C:----45----45----45----45----45----45--55----55----|
G:--5-----5-----4-----4-----2-----2-----33----33----|
D:-3-----3-----2-----2-----0-----0------------------|
   ..    ..    ..    ..    ..    ..     ..    ..

Let ring
D:-------|
A:-------|
F:-------|
C:-2-----|
G:-2-----|
D:-0-----|


Before Drum Pause [all palm muted]:
D:--------------------------------|
A:--------------------------------|
F:--------------------------------|
C:-22222----22222---222-222-22222-|
G:-22222----22222---222-222-22222-|
D:-00000----00000---000-000-00000-|

After Drum Pause [all palm muted]:
D:------------------------------------------------------------------------|
A:------------------------------------------------------------------------|
F:------------------------------------------------------------------------|
C:-22222---222-222-22222--222-22222-222-222-22222-222-22222-222-222-22222-|
G:-22222---222-222-22222--222-22222-222-222-22222-222-22222-222-222-22222-|
D:-00000---000-000-00000--000-00000-000-000-00000-000-00000-000-000-00000-|

Pre Bridge: let ring
D:-0-----------|
A:-0-----------|
F:-3-----------|
C:-2-----------|
G:-2-----------|
D:-0-----------|

Pre Bridge(lead):
D:--------------------------------------------------------------|
A:--00000000000000-00000000000000-00000000000000-00000000000000-|
F:--33333333333333-33333333333333-33333333333333-33333333333333-|
C:-2--------------2--------------2--------------2---------------|
G:-2--------------2--------------2--------------2---------------|
D:-0--------------0--------------0--------------0---------------|


Bridge1(lead) [full chords palm muted]:
D:--------------------------|
A:-----------------00000000-|
F:-----------------33333333-|
C:-2-2-2-2-2222-2-2---------|
G:-2-2-2-2-2222-2-2---------|
D:-0-0-0-0-0000-0-0---------|


Bridge1 [all palm muted]:
D:------------------|
A:------------------|
F:------------------|
C:-2-2-2-2-2222-2-2-|
G:-2-2-2-2-2222-2-2-|
D:-0-0-0-0-0000-0-0-|


The end [all palm muted]: very fast
D:------------------------------------------------------------------------|
A:------------------------------------------------------------------------|
F:------------------------------------------------------------------------|
C:-2222222222222222222222222222222222222222222222222222222222222222222222-|
G:-2222222222222222222222222222222222222222222222222222222222222222222222-|
D:-0000000000000000000000000000000000000000000000000000000000000000000000-|


 Please rate!!





Comments


Popular Poison The Well tabs & chords
Artists Rendering Of Me Tabs
Crystal Lake Tabs
Grain Of Salt Tabs
Material Christ Tabs
Meeting Again For The First Time 1 Tabs
My Mirror No Longer Reflects 2 Tabs
Nerdy (Intro) Tabs
Rings Of Corona Tabs
Torn Tabs
Torn 2 Tabs


Song lyrics



↑ Back to top | Tablatures and chords are parodies/interpretations of the original songs. You may use it for private study, scholarship, research or language learning purposes only
© 2014 AZChords.com Contact us | Privacy policy | DMCA | Add/correct tabs | Request tabs | Top 50 tabs