» » »

Poison The Well, My Mirror No Longer Reflects Bass tabs (ver.1)

Artists:  A B C D E F G H I J K L M N O P Q R S T U V W X Y Z # 

My Mirror No Longer Reflects Bass tabs (ver.1)

Poison The Well Tabs
Rating:
0/5 (0 votes)
My Mirror No Longer Reflects lessons Tabs too difficult? Try these video lessons and learn fast
                Drop D tuning (DADG)

|----|----|----|----|----|----|----|----|----|----|----|----|----|----|----|----|
|----|----|----|----|----|----|----|----|----|----|----|----|----|----|----|----|
|----|----|----|----|----|----|----|----|----|----|----|----|----|----|----|----|
|9-9-|09-9|-99-|0-0-|9-9-|09-9|-99-|0-0-|9-9-|09-9|-99-|0-0-|9-9-|09-9|-99-|0-0-|

|----|----|----|----|----|----|----|----|----|----|----|----|----|----|----|----|
|----|----|----|----|----|----|----|----|----|----|----|----|----|----|----|----|
|----|----|----|----|----|----|----|----|----|----|----|----|----|----|----|----|
|9-9-|09-9|-99-|0-0-|9-9-|09-9|-99-|0-0-|9-9-|09-9|-99-|0-0-|9-9-|09-9|-99-|0-0-|

|----|----|----|----|----|----|----|----|----|----|----|----|----|----|----|----|
|----|----|----|----|----|----|----|----|----|----|----|----|----|----|----|----|
|----|----|----|----|----|----|----|----|----|----|----|----|----|----|----|----|
|7777|7777|8888|8888|00-0|0-00|-00-|0-0-|7777|7777|8888|8888|0-0-|--0-|0-0-|--0-|

|----|----|----|----|----|----|----|----|----|----|----|----|----|----|----|----|
|----|----|----|----|----|----|----|----|----|----|----|----|----|----|----|----|
|----|----|----|----|----|----|----|----|----|----|----|----|----|----|----|----|
|7777|7777|8888|8888|00-0|0-00|-00-|0-0-|7777|7777|8888|8888|0-0-|--0-|0-0-|--0-|

|----|----|----|----|
|----|----|----|----|
|----|----|----|----|
|----|----|----|----|

|----|----|----|----|----|----|----|----|----|----|----|----|----|----|----|----|
|----|----|----|----|----|----|----|----|----|----|----|----|----|----|----|----|
|----|----|----|----|----|----|----|----|----|----|----|----|----|----|----|----|
|9-9-|09-9|-99-|0-0-|9-9-|09-9|-99-|0-0-|9-9-|09-9|-99-|0-0-|9-9-|09-9|-99-|0-0-|

|----|----|----|----|----|----|----|----|----|----|----|----|----|----|----|----|
|----|----|----|----|----|----|----|----|----|----|----|----|----|----|----|----|
|----|----|----|----|----|----|----|----|----|----|----|----|----|----|----|----|
|0---|----|----|----|----|----|----|----|----|----|----|----|----|----|----|----|

In the recording, you can hear a small slide from 7 to 10 in this next part, but if you 
just play 1-0-3-5 on the second string.
But good luck sliding from open to 3, lul

|----|----|----|----|- ---|----|- ---|----|----|----|----|----|----|----|
|----|----|----|----|- ---|----|- ---|----|----|----|----|----|----|----|
|----|----|----|----|- ---|----|- ---|----|----|----|----|----|----|----|
|8---|----|7---|----|10---|----|12---|----|----|----|----|----|----|----|

|----|----|----|----|- ---|----|- ---|----|----|----|----|----|----|----|
|----|----|----|----|- ---|----|- ---|----|----|----|----|----|----|----|
|----|----|----|----|- ---|----|- ---|----|----|----|----|----|----|----|
|8---|----|7---|----|10---|----|12---|----|----|----|----|----|----|----|

|----|----|----|----|----|----|
|----|----|----|----|----|----|
|1-1-|1-1-|0-0-|0-0-|3-3-|3-3-|
|----|----|----|----|----|----|

|----|----|----|----|----|----|----|----|----|----|----|----|----|----|----|----|
|----|----|----|----|----|----|----|----|----|----|----|----|----|----|----|----|
|1---|----|0---|----|3---|----|5---|----|----|----|----|----|----|----|----|----|
|----|0-0-|----|0-0-|----|0-0-|----|0-0-|0000|000-|--0-|--0-|0000|000-|--0-|--0-|

|----|----|----|----|----|----|----|----|----|----|----|----|----|----|----|----|
|----|----|----|----|----|----|----|----|----|----|----|----|----|----|----|----|
|1---|----|0---|----|3---|----|5---|----|----|----|----|----|----|----|----|----|
|----|0-0-|----|0-0-|----|0-0-|----|0-0-|0000|000-|--0-|--0-|0000|000-|--0-|--0-|

|----|----|----|----|----|----|----|----|----|----|----|----|----|----|----|----|
|----|----|----|----|----|----|----|----|----|----|----|----|----|----|----|----|
|1---|----|0---|----|3---|----|5---|----|----|----|----|----|----|----|----|----|
|----|0-0-|----|0-0-|----|0-0-|----|0-0-|0000|000-|--0-|--0-|0000|000-|--0-|--0-|

|----|----|----|----|----|----|----|----|----|----|----|----|----|----|----|----|
|----|----|----|----|----|----|----|----|----|----|----|----|----|----|----|----|
|1---|----|0---|----|3---|----|5---|----|----|----|----|----|----|----|----|----|
|----|0-0-|----|0-0-|----|0-0-|----|0-0-|0000|000-|--0-|--0-|0000|000-|--0-|--0-|

|----|----|----|----|----|----|----|----|----|----|----|----|----|----|----|----|
|----|----|----|----|----|----|----|----|----|----|----|----|----|----|----|----|
|1---|----|0---|----|3---|----|----|----|----|----|----|----|----|----|----|----|
|----|0-0-|----|0-0-|----|0-0-|----|----|----|----|----|----|----|----|0---|----|

Then there's the guitar melody and screaming and stuff...

And one last note.

|----|----|----|----|
|----|----|----|----|
|----|----|----|----|
|0---|----|----|----|
            
Submit corrections

comments powered by Disqus
↑ Back to top | Poison The Well Bass for My Mirror No Longer Reflects. Lyrics for acoustic guitar and electric guitar. Tablatures and chords are parodies/interpretations of the original songs. You may use it for private study, scholarship, research or language learning purposes only