» » »

My Mirror No Longer Reflects Tabs (ver.3)

Artists:  A B C D E F G H I J K L M N O P Q R S T U V W X Y Z # 

My Mirror No Longer Reflects Tabs (ver.3)

Poison The Well
Rating:
0/5 (0 votes)

Hard to play? Try these video lessons and learn fast.
                Band: Poison The Well
Tuning: DGCFAD

Guitar 1            Guitar 2 
D|----------------|     D|----------------|
A|----------------|     A|----------------|
F|-8-8-8-888------|     F|-8-8-8-888------|
C|-6-6-6-666-2-22-|     C|-6-6-6-666-2-22-|
G|-4-4-4-444-2-22-|     G|-4-4-4-444-2-22-|
D|-4-4-4-444-0-00-|     D|-----------0-00-|


D|-----------------------------|
A|-----------------------------|
F|-444444-555555---------------|
C|-xxxxxx-xxxxxx-22-22-22-2222-|
G|-222222-333333-22-22-22-2222-|
D|---------------00-00-00-0000-|


D|---|
A|---|
F|---|
C|-2-|
G|-2-|
D|-0-|


D|---------------------------------------------------------|
A|-----0---------------------------------------------------|
F|-------0-----0-------0-------0-------0-------0-------0---|
C|---2-------0---0---4---4---5---5---5---5---5---5---5---0-|
G|-3-------2-------5-------7-------7-------7-------7-------|
D|---------------------------------------------------------|
  |      Let Ring                                      |


D|----------------|
A|----------------|
F|----------------|
C|-5555-5555-7777-|
G|-3333-2222-5555-|
D|----------------|

Guitar 1
D|-------------------------------------------------|
A|-------------------------------------------------|
F|-------------------------------------------------|
C|-------------------------------------------------|
G|-3*-22-2*-22-5*-22-7*-22—2222222-2-2-2222222-2-2-|
D|----00-0—00-----00----00-0000000-0-0-0000000-0-0-|


Guitar 2
D|-----------------------------------------|
A|-----------------------------------------|
F|-----------------------------------------|
C|-2-22-0-22-4-22-5-22-2222222-2-2-2222222-|
G|-3-22-2-22-5-22-7-22-2222222-2-2-2222222-|
D|---00---00---00---00-0000000-0-0-0000000-|


D|------------------------------|
A|------------------------------|
F|------------------------------|
C|-5-5-555-5-5-555-5-5-555-5-5--|
G|-7-7-777-7-7-777-7-7-777-7-7--|
D|------------------------------|


D|---------------------------------------------------------|
A|-----0---------------------------------------------------|
F|-------0-----0-------0-------0-------0-------0-------0---|
C|---2-------0---0---4---4---5---5---5---5---5---5---5---0-|
G|-3-------2-------5-------7-------7-------7-------7-------|
D|---------------------------------------------------------|
  |      Let Ring                                      |



D|----------------------------------------------------10--|
A|-------12--------8-----7-8-7---8-7-8---8-7-8---8-7------|
F|-----9----9----7---7-7-------9-------9-------9----------|
C|-10----------9------------------------------------------|
G|--------------------------------------------------------|
D|--------------------------------------------------------|
   |     Let Ring                                       
            
Hard to play? Try these video lessons and learn fast. | Correct




comments powered by Disqus
↑ Back to top | Tablatures and chords are parodies/interpretations of the original songs. You may use it for private study, scholarship, research or language learning purposes only