» » »

Pluto, Long White Cross Tabs (ver.1)

Artists:  A B C D E F G H I J K L M N O P Q R S T U V W X Y Z # 

Long White Cross Tabs (ver.1)

Pluto Tabs
Rating:
5/5 (5 votes)
Long White Cross lessons Tabs too difficult? Try these video lessons and learn fast
                
realy cool song from a great NZ band
Verse-

e|----------------------------------------------------------------------|
B|----------------------------------------------------------------------|
G|------------------------------------------------------8----8----8----8|
D|--10----10----10----10------10----10----10----10------8----8----8----8|
A|--10----10----10----10------10----10----10----10------6----6----6----6|
E|--8-----8-----8-----8-------8-----8-----8-----8-----------------------|

e|-------------------------------------------------------------------|
B|-------------------------------------------------------------------|
G|--8----8-----------------------------------------------------------|
D|--8----8-----------------6----6----6----6------6----6----6----6----|
A|--6----6----8----10------6----6----6----6------6----6----6----6----|
E|-------------------------4----4----4----4------4----4----4----4----|

e|--------------------------------------------|
B|--------------------------------------------|
G|------------3----2----------------3----2----|
D|--3----3----3----3------3----3----3----3----|
A|--3----3----------------3----3--------------|
E|--1----1----------------1----1--------------|


Chorus-

E|--------------------------------------------------------------|
B|--------------------------------------------------------------|
G|--------------------------------------------------------------|
D|--6--------6----------6--------6----------10--------10--------|
A|--6--------6----------6--------6----------10--------10--------|
E|--4--------4----------4--------4----------8---------8---------|

e|--------------------------------------------------------------|
B|--------------------------------------------------------------|
G|--------------------------------------------------------------|
D|--10--------10----------8--------8----------8--------8--------|
A|--10--------10----------8--------8----------8--------8--------|
E|--8---------8-----------6--------6----------6--------6--------|

e|----------------------------------------|
B|----------------------------------------|
G|----------------------------------------|
D|--3--------3----------3--------3--------|
A|--3--------3----------3--------3--------|
E|--1--------1----------1--------1--------|
            
Submit corrections

comments powered by Disqus
↑ Back to top | Pluto Tabs for Long White Cross. Lyrics for acoustic guitar and electric guitar. Tablatures and chords are parodies/interpretations of the original songs. You may use it for private study, scholarship, research or language learning purposes only