» » »

Pluto, Long White Cross Bass tabs (ver.1)

Artists:  A B C D E F G H I J K L M N O P Q R S T U V W X Y Z # 

Long White Cross Bass tabs (ver.1)

Pluto Tabs
Rating:
5/5 (1 vote)
Hard to play? Try these video lessons and learn fast.
                Tuning: Standard

Verse

G|------------------------------------------------------3-2---3-2------------|
D|------------------1-1-1-1-1-1-3-5------------------------------------------|
A|-3-3-3-3-3-3-3-3-----------------------------------------------------------|
E|----------------------------------4-4-4-4-4-4-4-4-1-1----1-1---------------|

Pre-Chorus

G|---------------------------------------------------------------------------|
D|---------------------------------------------------------------------------|
A|-3-3-3-3-3-3-3-3-3-3-3-3-3-3-3-3-------------------------------------------|
E|---------------------------------------------------------------------------|

Chorus

G|---------------------------------------------------------------------------|
D|---------------------------------------------------------------------------|
A|-----------------3---3---3---3---1---1---1---1-----------------------------|
E|-4---4---4---4-----------------------------------1---1---1---1-------------|

Song structure should be pretty easy to work out. Enjoy :)
            

comments powered by Disqus
↑ Back to top | Pluto Bass for Long White Cross. Lyrics for acoustic guitar and electric guitar. Tablatures and chords are parodies/interpretations of the original songs. You may use it for private study, scholarship, research or language learning purposes only