» » »

Platero Y Tu, El Roce De Tu Cuerpo Tabs (ver.1)

Artists:  A B C D E F G H I J K L M N O P Q R S T U V W X Y Z # 

El Roce De Tu Cuerpo Tabs (ver.1)

Platero Y Tu Tabs
Rating:
5/5 (1 vote)
El Roce De Tu Cuerpo lessons Tabs too difficult? Try these video lessons and learn fast
                PLATERO Y TU : El Roce De Tu Cuerpo (1)
                     -------------------------------------

        * Hay dos versiones del tabulado para guitarra.       *


        Güenas a todos. Esta es la primera de una serie de tabs de
   Platero y Tú ke eskribo para Rikardo García (bueno, y para todos,
   klaro). Esta es muy sencilla, yo la toko kon el grupo y suena dabuti,
   simplemente hay ke fantasmear un poko en los solos y ya está.

        Al lío, komo decía Fer... (BSA, kretinos)

Intro:

C       D      o como lo hago yo:

e |---------------------------------------|
B |--------------------------------7------|
G |----5----------------7-----------------|
D |----5----------------7-----------------|
A |----3----------------5--------5--------|
E |---------------------------------------|


        Ahora dos guitarras, una hace los ritmos y otra un punteíllo,
   el punteíllo es más o menos komo lo eskribo akí, pero kizá no sea
   el korrekto, las korrekciones son, komo siempre, bienvenidas
   G           D           E 
e |------------------------------------------------|
B |------------------------------------------------|
G |------------------------------------------------|
D |--------------7------7--------------------------|
A |--5------5--5-5--5-5-5----7------7----7------7--|
E |3-3--3-3-3--------------0-0--0-0-0--0-0--0-0-0--|

        Sobre este ritmo se toka el punteíllo:
e |----------------------------------------------------------------------|
B |----------------------------------------------------------------------|
G |------12--12-12--12-14^16^14--12-14--14-14--12-14^16^14--12-----------|
D |12|14-------------------------------------------------------14--14-14-|
A |----------------------------------------------------------------------|
E |----------------------------------------------------------------------|

        Esta es la parte de la ke no estoy seguro, pero tokando esto
   suena bien
e |12--15|14|12--------------------------|
B |-------------15|14|12-----------------|
G |----------------------14|12-----------|
D |----------------------------14|12|14--|
A |--------------------------------------|
E |--------------------------------------|

        Luego vuelve a tokar esto:
e |----------------------------------------------------------------------|
B |----------------------------------------------------------------------|
G |------12--12-12--12-14^16^14--12-14--14-14--12-14^16^14--12-----------|
D |12|14-------------------------------------------------------14--14-14-|
A |----------------------------------------------------------------------|
E |----------------------------------------------------------------------|

        Y akaba así:

e |17|19-19-19-19|17--15------|
B |----------------------15---|
G |---------------------------|
D |---------------------------|
A |---------------------------|
E |---------------------------|

        Bueno, aklaraciones. El símbolo | lo uso para indikar hammer on
   o pull off según korresponda, y ^ indika BEND, o sea, ke 14^16^14
   signifika hacer Bend sobre la nota 14 hasta ke suene komo la 16 y
   luego volver a bajarla al 14. Supongo ke además si konocéis la
   kanción ya sabréis kómo ha de sonar.

        Bueno, después de esto empieza el Fito (se hace pajas) a kantar,
   y al principio sólo hay un bajo kon las notas del ritmo (G D E), aluego
   entran las guitarras kon estas kosas:

e |-------------------------|
B |----3-3-3----------------|
G |0-4-------2^4^2-0-2-0----|
D |-------------------------|
A |-------------------------|
E |-------------------------|

        Y justo justo después de esto hace esto kon Palm Mute:

e |----------------------------------------------------------------|
B |----------------------------------------------------------------|
G |----------------7-------7-------0-------0-------0-------0-------|
D |5-------5---------7---7---7---7---2---2---2---2---2---2---2---2-|
A |--5---5---5---5-----5-------5-------2-------2-------2-------2---|
E |----3-------3---------------------------------------------------|

        Tal y tal. La entrada para el pre-estribillo es:

   Fill 1
e |---------|
B |---------|
G |---------|
D |---------|
A |----2-0--|
E |3-5------|

C         D                  G     Fill 1
Seguro ke sola está ella también
C            D                    G    Fill 1
Tirada en la kama sin saber ké hacer 
C           D                G    Fill 1  
No sé kómo komenzó la diskusión     
B                 C                 D
Ni a kién le tokará ahora pedir perdón

        Hay un momento en la kanción en ke en vez de mantener ese D
   para el estribillo hace esto ke mola mucho:

e |------------------------|
B |----8-----7-----5-----7-|
G |----7-----7-----7-----7-|
D |0-0---0-0---0-0---0-0---| --> las notas de esta kuerda kon Palm Mute
A |------------------------|
E |------------------------|
    
Y ahora ya el estribillo:

G       D       E       C

        Kreo ke en el estribillo una guitarra hace esto:

e |15--14--14|15|14-----------------|
B |-----------------15-15^17---13---|
G |---------------------------------|
D |---------------------------------|
A |---------------------------------|
E |---------------------------------|
        Si no lo hace me da igual porke yo lo hago y suena ke te kagas.

        Bueno, pues ya está, el resto de la kanción son repetición de
   lo anterior. Los solos... joder, bastantes rayas he hecho ya, y si las
   he hecho es porke me parecía muy soso eskribir tan poko kuando de esta
   kanción me lo sé todo (más ke nada porke la tokamos en el grupo). En
   los solos, haced komo yo e improvisad. Yo la toko mejor ke el "Uoho"
   (jua jua jua no me lo kreo ni yo).
            

comments powered by Disqus
↑ Back to top | Platero Y Tu Tabs for El Roce De Tu Cuerpo. Lyrics for acoustic guitar and electric guitar. Tablatures and chords are parodies/interpretations of the original songs. You may use it for private study, scholarship, research or language learning purposes only