» » »

Platero Y Tu, El Roce De Tu Cuerpo Bass tabs (ver.1)

Artists:  A B C D E F G H I J K L M N O P Q R S T U V W X Y Z # 

El Roce De Tu Cuerpo Bass tabs (ver.1)

Platero Y Tu Tabs
 Rating:
4.3/5 (6 votes)
El Roce De Tu Cuerpo lessons Tabs too difficult? Try these video lessons and learn fast
                Standard Tuning


Intro

|----------------|----------------|
|----------------|----------------|
|-3--------------|-5--------------|
|----------------|----------------|

|----------------|----------------|
|-----5-5----5-5-|-----5-5----5-5-|
|----------------|----------------|
|-3------3-3-----|-3------3-3-----|

|----------------|-----7-7----7-7-|-----9-9----9-9-|-----9-9----9-9-|
|-----5-5----5-5-|----------------|----------------|----------------|
|----------------|-5------5-5-----|-7------7-7-----|-7------7-7-----|
|-3------3-3-----|----------------|----------------|----------------|x2times

Verse

|----------------|-----7-7----7-7-|-----9-9----9-9-|-----9-9----9-9-|
|-----5-5----5-5-|----------------|----------------|----------------|
|----------------|-5------5-5-----|-7------7-7-----|-7------7-7-----|
|-3------3-3-----|----------------|----------------|----------------|x2times

|----------------|----------------|
|----------------|----------------|
|-3--------------|-5--------------|
|----------------|----------------|

|----------------|-----7-7----7-7-|-----9-9----9-9-|-----9-9----9-9-|
|-----5-5----5-5-|----------------|----------------|----------------|
|----------------|-5------5-5-----|-7------7-7-----|-7------7-7-----|
|-3------3-3-----|----------------|----------------|----------------|x2times

Pre-Chorus

|----------------|----------------|----------------|-------------------|
|----------------|----------------|----------------|-4h555-4h555-4h555-|
|--------2---0---|-3-3-3-3-3-3-3-3|-5-5-5-5-5-5-5-5|-------------------|
|-3---5----------|----------------|----------------|-------------------| x3times

|----------------|----------------|----------------|----------------|
|----------------|----------------|----------------|5555555555555555|
|--------2---0---|-2-2-2-2-2-2-2-2|-5-5-5-5-5-5-5-5|----------------|
|-3---5----------|----------------|----------------|----------------|

Chorus

|----------------|----------------|----------------|----------------|
|----------------|----------------|----------------|----------------|
|----------------|-5-5-5-5-5-5-5-5|-7-7-7-7-7-7-7-7|-3-3-3-3-5-5-5-5|
|-3-3-3-3-3-3-3-3|----------------|----------------|----------------|

Song order

Intro
Verse
Pre-chorus
Chorus x2

|----------------|-----7-7----7-7-|-----9-9----9-9-|-----9-9----9-9-|
|-----5-5----5-5-|----------------|----------------|----------------|
|----------------|-5------5-5-----|-7------7-7-----|-7------7-7-----|
|-3------3-3-----|----------------|----------------|----------------|x2times

Verse
Pre-chorus
Chorus x4

During solo, same riff as chorus

Pre-chorus
Chorus x5

|----------------|----------------|----------------|
|----------------|----------------|----------------|
|----------------|-5-5-5-5-5-5-5-5|-7-7-7-7-7-7-7-7|
|-3-3-3-3-3-3-3-3|----------------|----------------|

|----------------|----------------|----------------|
|----------------|----------------|----------------|
|-3--------------|-5--------------|----------------|
|----------------|----------------|-3--------------|
            
Submit corrections

comments powered by Disqus
↑ Back to top | Platero Y Tu Bass for El Roce De Tu Cuerpo. Lyrics for acoustic guitar and electric guitar. Tablatures and chords are parodies/interpretations of the original songs. You may use it for private study, scholarship, research or language learning purposes only