» » »

The One Tabs (ver.1)

Artists:  A B C D E F G H I J K L M N O P Q R S T U V W X Y Z # 

The One Tabs (ver.1)

Planetshakers
Rating:
0/5 (0 votes)

Hard to play? Try these video lessons and learn fast.
                ..........THE ONE..........

[Intro:] Electric:
e|--------------------------------|
B|--------------------------------|
G|--------------------------------|
D|--------------------------------|
A|--------5--7--7--5-7-----5--7---|
E|--0--0----------------7---------|

e|--------------------------------|
B|--------------------------------|
G|--------------------------------|
D|--------------------------------|
A|-----5--------5--7--7--5-7------|
E|--7-----0--0----------------7---|

e|--------------|
B|--------------|
G|--------------|
D|--------------|
A|--5--7--------|
E|--------5--3--|

repeat 4 times

[Verse:]
Em
We’re lifting up Your name,

We live to bring You praise,
                     C    D
Cause there’s no one like You

Em
All glory to Your name,

Cause you alone are great,
                     C    D
And there is no one like You

[Pre-chorus:]
E                C#m
We will lift You higher,
            C
Higher than all other names,
      D
Cause You are worthy

[Chorus:]
E                 C#m
Jesus You are the one,
       C             D
Who is worthy of the highest praise
E                 C#m
Jesus You are the one,
            D         A
You are the one, the king of glory
(repeat intro)

[Bridge:]
This part there acoustic just plays Em 
Electic:
e|--------------------------------|
B|--------------------------------|
G|--------------------------------|
D|--------------------------------|
A|--------------------------------|
E|--0--0--0--3--4--5--0--0--0--3--|

e|-----------------|
B|-----------------|
G|-----------------|
D|-----------------|
A|--------5--6--7--|
E|--4--5-----------|

Sing it loud, sing it proud,
For He is king
He alone, is the one,
He’s everything (repeat x4)

Intro
Verse
Pre-Chorus
Chorus
Intro
Verse
Pre-Chorus x2
Chorus x2
Bridge x4
Chorus x2
            
Hard to play? Try these video lessons and learn fast. | Correct




comments powered by Disqus
↑ Back to top | Tablatures and chords are parodies/interpretations of the original songs. You may use it for private study, scholarship, research or language learning purposes only