» » »

Plain White T's, Hey There Delilah Tabs (ver.1)

Artists:  A B C D E F G H I J K L M N O P Q R S T U V W X Y Z # 

Hey There Delilah Tabs (ver.1)

Plain White T's Tabs
 Rating:
4/5 (4 votes)
Hey There Delilah lessons Tabs too difficult? Try these video lessons and learn fast
                Plain White T's


I decided to tab this one since no one else had yet to do it. IM me for errors. This is 
much the best tab that i know of...


Standard Tuning

Intro

e-------------------------------------------------------------------------|
B--3-3-3-3-2-2-2-2-3-3-3-3-2-2-2-2----------------------------------------|
G-------------------------------------------------------------------------|
D-0-0-0-0-4-4-4-4-0-0-0-0-4-4-4-4-----------------------------------------|
A-------------------------------------------------------------------------|
E-------------------------------------------------------------------------|


Verse

e-------------------------------------------------------------------------|
B--3-3-3-3-2-2-2-2-3-3-3-3-2-2-2----3-3-3----3-3-2-2-3-3-3-3-2-2-5-5------|
G-----------------------------------4-4-4---------------------------------|
D-0-0-0-0-4-4-4-4-0-0-0-0-4-4-4-4-----------------------------------------|
A----------------------------------2-2-2-0------0-0-2-2-2-2-0-0-0-0-------|
E-------------------------------------------3-3---------------------------|


e-------------------------------------------------------------------------|
B--3-3-3-3-2-2-2-2-3-3-3-3-2-2-2----3-3-3----3-3-2-2-3-3-3-3-2-2-5-5------|
G-----------------------------------4-4-4---------------------------------|
D-0-0-0-0-4-4-4-4-0-0-0-0-4-4-4-4-----------------------------------------|
A----------------------------------2-2-2-0------0-0-2-2-2-2-0-0-0-0-------|
E-------------------------------------------3-3---------------------------|


Chorus

e-------------------------------------------------------------------------|
B--3-3-3----3-3-3-3-3-3-3----3-3-3-3-3-3-3----3-3-3-3-3-3-3----3-3-3-3----|
G-------------------------------------------------------------------------|
D-0-0-0------------0-0-0------------0-0-0------------0-0-0----------------|
A-------0--2-2-2-4-------0--2-2-2-4-------0--2-2-2-4-------0--2-2-2-4-----|
E-------------------------------------------------------------------------|


Interlude

e-------------------------------------------------------------------------|
B--3-3-3-3----------------------------------------------------------------|
G-------------------------------------------------------------------------|
D-0-0-0-------------------------------------------------------------------|
A-------0-----------------------------------------------------------------|
E-------------------------------------------------------------------------|


Verse

e-------------------------------------------------------------------------|
B--3-3-3-3-2-2-2-2-3-3-3-3-2-2-2----3-3-3----3-3-2-2-3-3-3-3-2-2-5-5------|
G-----------------------------------4-4-4---------------------------------|
D-0-0-0-0-4-4-4-4-0-0-0-0-4-4-4-4-----------------------------------------|
A----------------------------------2-2-2-0------0-0-2-2-2-2-0-0-0-0-------|
E-------------------------------------------3-3---------------------------|


e-------------------------------------------------------------------------|
B--3-3-3-3-2-2-2-2-3-3-3-3-2-2-2----3-3-3----3-3-2-2-3-3-3-3-2-2-5-5------|
G-----------------------------------4-4-4---------------------------------|
D-0-0-0-0-4-4-4-4-0-0-0-0-4-4-4-4-----------------------------------------|
A----------------------------------2-2-2-0------0-0-2-2-2-2-0-0-0-0-------|
E-------------------------------------------3-3---------------------------|


Chorus

e-------------------------------------------------------------------------|
B--3-3-3----3-3-3-3-3-3-3----3-3-3-3-3-3-3----3-3-3-3-3-3-3----3-3-3------|
G-------------------------------------------------------------------------|
D-0-0-0------------0-0-0------------0-0-0------------0-0-0----------------|
A-------0--2-2-2-4-------0--2-2-2-4-------0--2-2-2-4-------0--2-2-2-0-----|
E-------------------------------------------------------------------------|


Bridge

e-------------------------------------------------------------------------|
B--3-3-3-3-2-2-2-2-3-3-3----3-3-3----3-3-3-3-2-2-2-2-3-3-3----3-3-3-------|
G-------------------------------------------------------------------------|
D-----------------0-0-0-----------------------------0-0-0-----------------|
A---------0-0-0-0-------0--2-2-2-0----------0-0-0-0-------4--2-2-2-0------|
E-3-3-3-3---------------------------3-3-3-3-------------------------------|


e-------------------------------------------------------------------------|
B--3-3-3-3-2-2-2----3-3-3-3-3-3-3-3-2-2-2-2-5-5-5-5-----------------------|
G-------------------------------------------------------------------------|
D-------------------------------------------------------------------------|
A---------0-0-0-0--2-2-2-2-2-2-2-2-0-0-0-0-0-0-0-0------------------------|
E-3-3-3-3-----------------------------------------------------------------|


Verse

e-------------------------------------------------------------------------|
B--3-3-3-3-2-2-2-2-3-3-3-3-2-2------3-3-3----3-3-2-2-3-3-3----3-3-2-2-----|
G-------------------------------------------------------------------------|
D-0-0-0-0-4-4-4-4-0-0-0-0-4-4-4-------------------------------------------|
A----------------------------------2-2-2-0------0-0-2-2-2-0------0-0------|
E-------------------------------------------3-3--------------3-3----------|


e-------------------------------------------------------------------------|
B--3-3-3----3-3-2-2-3-3-3-3-2-2-2-2-5-5-5-5-------------------------------|
G-------------------------------------------------------------------------|
D-------------------------------------------------------------------------|
A-2-2-2-0------0-0-2-2-2-2-0-0-0-0-0-0-0-0--------------------------------|
E----------3-3------------------------------------------------------------|


Chorus

e-------------------------------------------------------------------------|
B--3-3-3----3-3-3-3-3-3-3----3-3-3-3-3-3-3----3-3-3-3-3-3-3----3-3-3-3----|
G-------------------------------------------------------------------------|
D-0-0-0------------0-0-0------------0-0-0------------0-0-0----------------|
A-------0--2-2-2-4-------0--2-2-2-4-------0--2-2-2-4-------0--2-2-2-4-----|
E-------------------------------------------------------------------------|


e-------------------------------------------------------------------------|
B--3-3-3----3-3-3-3-3-3-3----3-3-3-3-3-3-3----3-3-3-3-3-3-3----3-3-3-3----|
G-------------------------------------------------------------------------|
D-0-0-0------------0-0-0------------0-0-0------------0-0-0----------------|
A-------0--2-2-2-4-------0--2-2-2-4-------0--2-2-2-4-------0--2-2-2-4-----|
E-------------------------------------------------------------------------|


Ending

e---------2---------------------------------------------------------------|
B--3-3-3--3---------------------------------------------------------------|
G---------2---------------------------------------------------------------|
D-0-0-0--0----------------------------------------------------------------|
A-------0-----------------------------------------------------------------|
E-------------------------------------------------------------------------|
            
Submit corrections

comments powered by Disqus
↑ Back to top | Plain White T's Tabs for Hey There Delilah. Lyrics for acoustic guitar and electric guitar. Tablatures and chords are parodies/interpretations of the original songs. You may use it for private study, scholarship, research or language learning purposes only