» » »

Pitchshifter, As Seen On Tv Tabs (ver.2)

Artists:  A B C D E F G H I J K L M N O P Q R S T U V W X Y Z # 

As Seen On Tv Tabs (ver.2)

Pitchshifter Tabs
Rating:
0/5 (0 votes)
As Seen On Tv lessons Tabs too difficult? Try these video lessons and learn fast
                Band - Pitchshifter
Song - As Seen On TV
Album - Deviant
Drop d tuning

~ - Let ring

Intro / Part of main riff
|--------------------------------|
|-1—3-3-1---3-1-3--1-1-1-1-2-2-2-|
|--------------------------------|
|--------------------------------|
|--------------------------------|
|--------------------------------|

Main Riff
|-----------------------------------|
|-----------------------------------|
|-----------------------------------|
|-5-7-7-5---7-5-7--5-5-5-5-6-6-6----|
|-5-7-7-5---7-5-7--5-5-5-5-6-6-6----|
|-5-7-7-5---7-5-7--5-5-5-5-6-6-6----|                                                                             

Verse
|----------------------|
|----------------------|
|----------------------|
|-2~----2-2--2-2--2-2~-|
|-2~----2-2--2-2--2-2~-|
|-2~----2-2--2-2--2-2~-|                                                                             

This is the bit after the chorus
|----------------------------------------------|
|----------------------------------------------|
|----------------------------------------------|
|-2--2--2-2-2-2-2-5-5-5--2--2--2-2-2-2-2-5-5-5-|                                    |-2--2--2-2-2-2-2-5-5-5--2--2--2-2-2-2-2-5-5-5-|
|-2--2--2-2-2-2-2-5-5-5--2--2--2-2-2-2-2-5-5-5-|
                                                                              
This was one of the first songs that I really figured out myself. It sounds pretty wicked. Big up to my fiancée Georgie.
            
Submit corrections

comments powered by Disqus
↑ Back to top | Pitchshifter Tabs for As Seen On Tv. Lyrics for acoustic guitar and electric guitar. Tablatures and chords are parodies/interpretations of the original songs. You may use it for private study, scholarship, research or language learning purposes only