» » »

Pistolita, Age Bass tabs (ver.1)

Artists:  A B C D E F G H I J K L M N O P Q R S T U V W X Y Z # 

Age Bass tabs (ver.1)

Pistolita Tabs
 Rating:
4/5 (4 votes)
Age lessons Tabs too difficult? Try these video lessons and learn fast
                ----------------------------------------------------------------------------
----------------------------------------------------------------------------


Tuning: EADG
Intro (come in with piano) X4 (picking pattern is different for final 2)
G|---------------------------------------------------------------------|
D|---------------------------------------------------------------------|
A|-3-33333-3-3---0-00000-0-0-------------------------------------------|
E|--------------------------------------0--00000-0-0---3-33333--3-3----|

Verse
G|-------------------------------------------------------------------------|
D|-------------------------------------------------------------------------|
A|--3--------0-------------------------------------------------------------|
E|-----------------------0---------3------------------333333---------------|

G|------------------------------------------------------------------------|
D|------------------------------------------------------------------------|
A|---3x------0x-----------------------------------------------------------|
E|---------------------0x----------3x-------------------------------------|

Chorus
G|------------------------------------------------------------------------|
D|------------------------------------------------------------------------|
A|----3x------0x----------------------------------------------------------|
E|----------------------0x-------3x---------------------------------------|

Anything else is just a variation in picking patterns of the 4 bass notes. Pretty easy 
but a killer band.


| /  slide up
| \  slide down
| h  hammer-on
| p  pull-off
| ~  vibrato
| +  harmonic
| x  Mute note
===============================================================================
            
Submit corrections

comments powered by Disqus
↑ Back to top | Pistolita Bass for Age. Lyrics for acoustic guitar and electric guitar. Tablatures and chords are parodies/interpretations of the original songs. You may use it for private study, scholarship, research or language learning purposes only