» » »

Age Tabs (ver.2)

Artists:  A B C D E F G H I J K L M N O P Q R S T U V W X Y Z # 

Age Tabs (ver.2)

Pistolita
Rating:
1/5 (1 vote)

Hard to play? Try these video lessons and learn fast.
                (Intro)
I'm pretty sure this is it.


Pistolita - Age



MAIN RIFF/INTRO


e|--0--0--0--0--0-0-0-0-----|
B|12-12-12-12-12-7-8-6------|
G|--------------------------| X5
D|--------------------------| 
A|--------------------------|
E|--------------------------|


e|--0--0--0--0--0--0--0--0--|
B|12-12-12-12-12-12-12-12---|
G|--------------------------|
D|--------------------------| 
A|--------------------------|
E|--------------------------|


e|--0--0--0--0--0-0-0-0-----|
B|12-12-12-12-12-7-8-6------|
G|--------------------------| etc..
D|--------------------------| 
A|--------------------------|
E|--------------------------|
            
Hard to play? Try these video lessons and learn fast. | Correct




comments powered by Disqus
↑ Back to top | Tablatures and chords are parodies/interpretations of the original songs. You may use it for private study, scholarship, research or language learning purposes only