» » »

What Do You Want From Me Bass tabs (ver.1)

Artists:  A B C D E F G H I J K L M N O P Q R S T U V W X Y Z # 

What Do You Want From Me Bass tabs (ver.1)

Pink Floyd
Rating:
0/5 (0 votes)

Hard to play? Try these video lessons and learn fast.
                (1)

WHAT DO YOU WANT FROM ME
Pink Floyd


bpm=52

INTRO:
G----------------------|
D-----2----------------|
A--------2-----2--3--2-|
E--0--------0----------| (play 3 times)

G----------------|----------------------|
D-----2----------|-----2----------------|
A--------2-------|--------2-----2--3--2-|
E--0--------0--7-|--0--------0----------| (play once)

G------------------------|----------------------|
D-----2------------------|-----2----------------|
A--------2-----2-3-2-----|--------2-----2--3--2-|
E--0--------0--------5-3-|--0--------0----------| (play twice)


Verse, etc:
G----------------------|---------------------------|
D-----2----------------|-----2---------------------|
A--------2-----2--3--2-|--------2-----2--3--2------|
E--0--------0----------|--0--------0-----------5--3| (play twice)

G-------------2----|--------------|----------------------|
D----------2-----5-|--------------|-----2----------------|
A------------------|--------------|--------2-----2--3--2-|
E--5--5-5----------|--5---5--3--5-|--0--------0----------|

G--------------------|-----------5-5---|------2---2---|----|
D------------2-------|---------2-----2-|--------2---2-|----|
A----------2---5-2---|-----------------|--------------|----|
E--0--0-0----------5-|-5--5--5---------|-5--5---------|-2--|

G-------------|------------|------------------|
D-------------|------------|------------------|
A-----------2-|-3--3--3--5-|-3--3--3--3-2-----|
E--2--4--5----|------------|--------------5-3-|

G-----------------------|------------------------|-----------------------|
D-----0-2-2--0----------|---0-2-2--0-------------|-----0-2-2--0----------|
A-----------------2-3-2-|--------------2-3-2-----|-----------------2-3-2-|
E--0------------0-------|-0----------0-------5-3-|--0------------0-------|

G-----------------------|-----------------------|------------------------|
D-----0-2-2--0----------|-----0-2-2--0----------|---0-2-2--0-------------|
A-----------------2-3-2-|-----------------2-3-2-|---------------3-2------|
E--0------------0-------|--0------------0-------|-0----------0-------5-3-|

G-------------------------|------------------------|--------------2------|
D-----0-2-2--0------------|---0-2-2--0-------------|------------2----5-2-|
A-----------------2-3-3-2-|---------------3-2------|---------------------|
E--0------------0---------|-0----------0-------5-3-|-5--3--5-5-----------|

G----------------|--------|------------|-----------------|
D----------------|------4-|------------|-----------------|
A----------------|----4---|----------2-|-3-3---3---3--5--|
E--5-5-3--5--5-5-|-2------|-2--4--5----|-----3---3-------|

G--------------------|-----------------------|--------------------|
D--------------------|-----0-2-2--0----------|---2-2--0-------2---|
A--3----3-3--3-2-----|-----------------2-3-2-|--------------2---2-|
E-----3----------5-3-|--0------------0-------|-0---------0--------|

Bridge:
G--------|------------|-------|--------------|
D--------|------------|-------|----------2-1-|
A--4---4-|-3--3--1----|-2---2-|-0---0--0-----|
E--------|----------4-|-------|--------------|

G--------|------------|-------|----------------|
D--------|------------|-------|----------2-2-1-|
A--4---4-|-3--3--1----|-2---2-|-0---0--0-------|
E--------|----------4-|-------|----------------|

G----------|------------|-------|--------------|
D--------1-|------------|-------|--------------|
A--4---4---|-3--3--1----|-2---2-|--------------|
E----------|----------4-|-------|--5--5-5--5-4-|

G-----------------------|------------|
D-----------------------|------------|
A-----------------------|----------2-|
E--2--2-2--0-2--2-2--0--|-2--4--5----|

G-------5-5---------|------5-5----------------|----|
D-----5------5------|----5------5-------------|----|
A--3-----------3--5-|-3-----------3---3-2-----|----|
E-------------------|---------------------5-3-|-0--|


--
            
Hard to play? Try these video lessons and learn fast. | Correct




comments powered by Disqus
↑ Back to top | Tablatures and chords are parodies/interpretations of the original songs. You may use it for private study, scholarship, research or language learning purposes only