» » »

Pink Floyd, Wearing The Inside Out Tabs (ver.2)

Artists:  A B C D E F G H I J K L M N O P Q R S T U V W X Y Z # 

Wearing The Inside Out Tabs (ver.2)

Pink Floyd Tabs
Rating:
0/5 (0 votes)
Wearing The Inside Out lessons Tabs too difficult? Try these video lessons and learn fast
                


                            PINK FLOYD
                     -Wearing the Inside Out-
                       Off the Division Bell

                        


Legend

b-bend
(b)-note pre-bent
~-sustain/vibrato
h-hammer
p-pull
A.H.-artifical harmonic
/-slide
x-rake note




(5:14)
|--------------------------------------------------------------------------|
|--------------------------------------------------------------------------|
|-17b~~--17b-15-17-----15-17--(b)17bp15-17---14h15p14----------------------|
|------------------17--------------------------------15--------------------|
|------------------------------------------------------15------------------|
|--------------------------------------------------------------------------|

(5:21)
|--------------------------------------------------------------------------|
|----------------------------------------------------18--------------------|
|--------------------------------------17b-17----17b----(b)17--------------|
|--------15-17bA.H.-15--17----15h17~~--------------------------------------|
|-15-17--------------------17----------------------------------------------|
|--------------------------------------------------------------------------|

(5:27)
|-----17p15-17b~~(b)17-15-----------------------------20b~bp18-20bp18-20---|
|---x--------------------18b-(b)18------------15~~\------------------------|
|-x--------------------------------17---15-17------------------------------|
|--------------------------------------------------------------------------|
|--------------------------------------------------------------------------|
|--------------------------------------------------------------------------|

(5:36)
|---------15-18-----15-18--------------------------------------------------|
|-----18b-------18b-------18b~\----18---18---------------------------------|
|---x------------------------------17b-----17-15---15b----17----15---------|
|-x----------------------------------------------------17----17----17------|
|--------------------------------------------------------------------------|
|--------------------------------------------------------------------------|

                          (5:46)
|---------------------------------------------------------3----3-----------|
|-----------------------------------------3-3---------5/7------------------|
|-----------------------------------------3-3---------5/7---5b---5bp3---3--|
|----------------------------------------------5~---------------------5----|
|-/15-15--13b-----3-1~-----------------------------------------------------|
|-------------15----------/3-3-1-3--3-1------------------------------------|

         (5:53)
|------------------3---------------------------------------1-------1-1-----|
|-------------3------3-------------------------------------1-------1-1-----|
|-5p3----5b~~---5b-----5bp3-5p3---3------------------------2-------2-2-----|
|-------------------------------5---5-3--------------------3-------3-3-----|
|---------------------------------------3bp1---------------3-------3-3-----|
|--------------------------------------------3---6-3-1~~---1-------1-1-----|

(6:02)                                      (6:07)
|---------------------------------------------6-6--5-5-5--3--1-1--1/3-3----|
|--------------------------------------------------------------------------|
|--------------3-5b-3-5b-5---3-5b-5bp3-5~-----7-7--5-5-5--3--0-0--1/3-3----|
|-------5bA.H.-------------5----------------1/8-8--------------------------|
|--------------------------------------------------------------------------|
|-1/3----------------------------------------------------------------------|

                                               (6:25)
|-3-5b~~----5b~p3------------------------------------10~~~-----10/18~~~~~--|
|-----------------6~~~-----------------------------------------------------|
|-------------------------------3~~~------------//11~~---------------------|
|-------------------------------3~~~---------------------------------------|
|-------------------------------1~~~---------------------------------------|
|--------------------------------------------------------------------------|


**This should be very close--but feel free to improvise on parts...
            
Submit corrections

comments powered by Disqus
↑ Back to top | Pink Floyd Tabs for Wearing The Inside Out. Lyrics for acoustic guitar and electric guitar. Tablatures and chords are parodies/interpretations of the original songs. You may use it for private study, scholarship, research or language learning purposes only