>
 >
Time Easy And 100 Correct

Time Easy And 100 Correct Guitar Tabs

Pink Floyd - Time Easy And 100 Correct chords, tabs, tablatures, lyrics

Guitar lessons | Add/correct | Request | Top 50 tabs Artists:  A B C D E F G H I J K L M N O P Q R S T U V W X Y Z 0-9

Time Easy And 100 Correct Guitar Tabs – Pink Floyd

CD, Sheet music, Poster

Do you like Time Easy And 100 Correct? Share with your friends now
Tabs
PINK FLOYD - TIME
-----------------

Intro

Main part
e|-----------------------------------------------------------------|
B|-----------------------------------------------------------------|   This just
G|-----------------------------------------------------------------|   repeats...
D|-----------------------------------------------------------------|
A|-----------------------------------------------------------------|
E|-0---------------2---------------0---------------2---------------|

e|-----------------------------------------------------------------|
B|-----------------------------------------------------------------|
G|-----------------------------------------------------------------|
D|-----------------------------------------------------------------|
A|-----------------------------------------------------------------|
E|-2---------------5---------------0---------------2---------------|

Improvise betweem main notes in the keys of E and F#minor.Tweak 
harmonics on the 12th and 5th frets on the top 2 strings for E key.
Work out something for everything else.


Verse part (strumming not indicated)

  "Tickin away..." "...dull day..."     "...fritter and waste..."  
e|-2-----------------|-0------------0-0-0-|-0---------------------|
B|-2-----------------|-2------------2-3-2-|-0---------------------|
G|-2--F#minor--------|-2--Amaj------2-2-2-|-1--Emaj---------------|
D|-4-----------------|-2------------2-2-2-|-2---------------------|
A|-4-----------------|-0------------0-0-0-|-2---------------------|
E|-------------------|--------------------|-0---------------------|

  "...way..."         (lead bit * = bend to linked note pitch)
e|-2-----------------|------------------------|
B|-2-----------------|------------------------|    Repeat this till
G|-2--F#minor--------|--4*5--4*5*4--2---------|    the chorus...
D|-4-----------------|-----------------4-2--2-|
A|-4-----------------|------------------------|
E|-------------------|------------------------|

Chorus part (just pick around these chords)

  "Tired of lying...  "Staying home.."  
e|-2-----------------|-----------------|
B|-2-----------------|-2---------------|  This repeats
G|-2-----------------|-1---------------|  until...
D|-0-----------------|-2---------------|
A|-------------------|-0---------------|
E|-------------------|-----------------|

  "Ten years have..."   "No one told you..."  "You missed the..."
e|-4------------------|-2--------------------|-0-------------------|
B|-5------------------|-3--------------------|-0-------------------|
G|-6------------------|-4--------------------|-1-------------------|
D|-6------------------|-4--------------------|-2-------------------|
A|-4------------------|-2--------------------|-2-------------------|
E|--------------------|----------------------|-0-------------------|

Solo
2nd Verse
2nd chorus

The only other bit is the transition between 'Time' and the
first reprise of 'Breathe'...

  "Thought I'd somthing...more to say..."
e|-2-------------------|--2--------------|-0----|
B|-3-------------------|--3--------------|-0----|
G|-4-------------------|--2--------------|-0----|
D|-4-------------------|--4--------------|-4----|
A|-2-------------------|--2--------------|-2----|
E|-------------------- |-----------------|-0----|





Comments


Popular Pink Floyd tabs & chords
Arnold Layne 2 Bass Tabs
Atom Heart Mother Bass Tabs
Matilda Mother Bass Tabs
Sheep Chords
Time Chords
Echoes 1 Tabs
Echoes 2 Tabs
Set The Controls 1 Tabs
The Trial Tabs
Burning Bridges Ukulele


Song lyrics



↑ Back to top | Tablatures and chords are parodies/interpretations of the original songs. You may use it for private study, scholarship, research or language learning purposes only
© 2014 AZChords.com Contact us | Privacy policy | DMCA | Add/correct tabs | Request tabs | Top 50 tabs