>
 >
Shine On You Crazy Diamond

Shine On You Crazy Diamond Bass Tabs

Pink Floyd - Shine On You Crazy Diamond chords, tabs, tablatures, lyrics

Guitar lessons | Add/correct | Request | Top 50 tabs Artists:  A B C D E F G H I J K L M N O P Q R S T U V W X Y Z 0-9

Shine On You Crazy Diamond Bass Tabs – Pink Floyd

CD, Sheet music, Poster

Do you like Shine On You Crazy Diamond? Share with your friends now
Bass TabsChordsChords v2Chords v3Chords v4TabsTabs v2Tabs v3Ukulele

                                                                     
Member of the Bass Tab Archive Tabbing Army ~



No bass for part 1


Part 2


 6/8 time

 
                                                         
G||-----------------|-----------------|-----------------|
D||-----------------|-------------3h5-|-----------------|
A||--3---------1-3--|--3--------------|--3---------1-3--|
E||-----------------|-----------------|-----------------|


                                                               
-------------------------|------------------|-----------------|
-------------------------|------------------|-----------------|
--3----------------------|------------------|-----------1--3--|
-----1-1-1-1-1-1-1-1-1-1-|--1/3--------1-3--|--3--------------|


                                                          
-----------------|---------------------|-----------------|
-----------------|---------------------|-----------------|
-----------------|---------------3-4-5-|--6---------5-6--|
--3---------1-3--|--3------3-5-6-------|-----------------|


                                                              
-----------------|-----------------|-------------------------|
-----------------|-----------------|-------------------------|
--6-----------6--|--5---------3-5--|--5----------------------|
-----------6-----|-----------------|-----1-1-1-1-1-1-1-1-1-1-|


                                                       
------------------|-----------------|-----------------|
------------------|-----------------|-----------------|
------------------|-----------1--3--|-----------------|
--1/3--------1-3--|--3--------------|--3---------1-3--|

                  
                   1st guitar solo                                    
------------------|-----------------|-----------------|
---------5--3-----|-----------------|-----------------|
---------------5--|-----------------|-----------1--3--|
--3---------------|--3---------1-3--|--3--------------|


                                                      
-----------------|-----------------|-----------------|
-----------------|-----------------|-----------------|
-----------------|-------------3h5-|-----------------|
--3---------1-3--|--3--------------|--3---------1-3--|


                                                      
-----------------|-----------------|-----------------|
-----------------|-----------------|-----------------|
-----------1--3--|-----------------|--------------5--|
--3--------------|--3---------1-3--|--3--------6-----|


                                                                    
----------------|-----------------|----------------|---------------|
----------------|-----------------|----------------|---------------|
--3----------3--|--3--------5--6--|--3----------3--|--3------------|
----------------|-----------------|----------------|---------------|


                                                       
------------------|-----------------|-----------------|
------------------|-----------------|-----------------|
------------------|-----------1--3--|-----------------|
--1/3--------1-3--|--3--------------|--3---------1-3--|


                                                          
---------------------|-----------------|-----------------|
---------------------|-----------------|-----------------|
---------------3-4-5-|--6---------5-6--|--6-----------6--|
--3------3-5-6-------|-----------------|-----------6-----|


                                                        
-----------------|------------------7--|---------------|
-----------------|---------------7-----|--5------------|
--5---------3-5--|--5------3--5--------|---------------|
-----------------|-----3h5-------------|---------------|


                                                                
---------------|---------------|---------------|---------------|
--4------------|--3------------|--2------------|---------------|
---------------|---------------|---------------|--6------------|
---------------|---------------|---------------|---------------|


                                                Keyboard solo                  
---------------|---------------|---------------|-----------------|
---------------|---------------|---------------|-----------------|
--5------------|--6------------|--5------------|-----------------|
---------------|---------------|---------------|--3---------1-3--|


                                                      
-----------------|-----------------|-----------------|
-----------------|-----------------|-----------------|
-----------1--3--|-----------------|-------------3h5-|
--3--------------|--3---------1-3--|--3--------------|


                                                      
-----------------|-----------------|-----------------|
-----------------|-----------------|-----------------|
-----------------|-----------1--3--|-----------------|
--3---------1-3--|--3--------------|--3---------1-3--|


                                                                      
-----------------|----------------|-----------------|----------------|
-----------------|----------------|-----------------|----------------|
--------------5--|--3----------3--|--3--------5--6--|--3----------3--|
--3--------6-----|----------------|-----------------|----------------|


                                                      
-----------------|-----------------|-----------------|
-----------------|-----------------|-----------------|
--3--------3--5--|-----------------|-----------1--3--|
-----------------|--3---------3-3--|--3--------------|


                                                         
----------------|---------------------|-----------------|
----------------|---------------------|-----------------|
----------------|---------------3-4-5-|--6-----------6--|
--3----------3--|--3------3-5-6-------|-----------6-----|


                                                          
-----------------|-----------------|---------------------|
-----------------|-----------------|---------------------|
--5--------------|--6-----------6--|--5------3-5-----5---|
------------1-3--|-----------6-----|-------------5-6---1-|


                                                                     
-----------------|-----------------|----------------|---------------|
--------------5--|-----------------|-------------5--|---------------|
-----------5-----|--3--------3--5--|----------------|--5------------|
--3--------------|-----------------|--3-------------|---------------|


2nd guitar solo                                                     
----------------|-----------------|-----------------|
----------------|-----------------|-----------------|
----------------|-----------------|-----------1--3--|
-----------3-3--|--3---------1-3--|--3--------------|


                                                      
-----------------|-----------------|-----------------|
-----------------|-----------------|-----------------|
-----------------|-------------3h5-|-----------------|
--3---------1-3--|--3--------------|--3---------1-3--|


                                                      
-----------------|-----------------|-----------------|
-----------------|-----------------|-----------------|
-----------1--3--|-----------------|--------------5--|
--3--------------|--3--------5--6--|--3--------6-----|


                                                                     
-----------------|-------------5--|-----------------|---------------|
-----------------|----------------|-----------------|---------------|
--3---------1-3--|--3-------------|--3---------1-3--|--3------------|
-----------------|----------------|-----------------|---------------|


                                                    
-----------------|---------------|-----------------|
-----------------|---------------|-----------------|
-----------------|---------------|-----------------|
--3---------1-3--|--3------------|--3---------1-3--|


                                                          
---------------------|-----------------|-----------------|
---------------------|-----------------|-----------------|
---------------3-4-5-|--6-----------6--|--5--------------|
--3------3-5-6-------|-----------6-----|------------1-3--|


                                                          
-----------------|---------------------|-----------------|
-----------------|---------------------|--------------5--|
--6-----------6--|--5------3-5-----5---|-----------5-----|
-----------6-----|-------------5-6---1-|--3--------------|


                                                    
-----------------|----------------|---------------||
-----------------|-------------5--|---------------||
--3--------3--5--|----------------|--5------------||
-----------------|--3-------------|---------------||


Part 3


   Remember when you were young....
                                                         
G||-----------------|-----------------|-----------------|
D||-----------------|--------------5--|-----------------|
A||-----------------|-----------5-----|-----------------|
E||--3---------1-3--|--3--------------|--2---------2-2--|


                   Shine on you crazy diamond....                                  
------------------|----------------|----------------|
------------------|----------------|----------------|
------------3--5--|--6------5------|--3-------------|
--6------6--------|----------------|---------6------|


                                                   
-----------------|-----------------|-----------------|
-----------------|-----------------|-----------------|
-----------------|-----------------|-----------------|
--1---------1-1--|--1------1--2----|--3---------1-3--|


Now there's a look in your eyes...                                                       
-----------------|-----------------|------------------|
--------------5--|-----------------|------------------|
-----------5-----|-----------------|------------3--5--|
--3--------------|--2---------2-2--|--6------6--------|


                                                                      
----------------|----------------|-----------------|-----------------|
----------------|----------------|-----------3-----|-----------------|
--6------5------|--3-------------|--------------3--|-----------------|
----------------|---------6------|--1--------------|--1--------1--2--|


 You were caught in the crossfire...                                                                 
---------------|---------------|---------------|-----------------|
---------------|---------------|---------------|-----------------|
---------------|---------------|---------------|--3----------3h5-|
--3------------|--2------------|--1------------|-----------------|


                                                            
-----------8-----|--------9-----------|--------------------|
--------------8--|-----8-----8-----8--|-----8-----8-----8--|
--6--------------|--7-----------7-----|--8-----8-----8-----|
-----------------|--------------------|--------------------|


                    
------------------||
-----3------------||
--5-----5/-9------||
------------------||


Part 4


G||-----------------|-----------------|-----------------|
D||-----------------|--------------5--|-----------------|
A||-----------------|-----------5-----|-----------------|
E||--3---------1-3--|--3--------------|--2---------2-2--|


                                                     
------------------|----------------|----------------|
------------------|----------------|----------------|
------------3--5--|--6------5------|--3-------------|
--6------6--------|----------------|---------6------|


                                     
-----------------|-----------------||
-----------------|-----------------||
-----------------|-----------------||
--1---------1-1--|--1------1--2----||



For the 2nd verse, play part 3.


Part 4


    Sax solo
G||-----------------|-----------------|-----------------|
D||-----------------|-----------------|-----------------|
A||-----------------|-----------1--3--|-----------------|
E||--3---------1-3--|--3--------------|--3---------1-3--|


                                                                      
---------------|-----------------|-----------------|-----------------|
---------------|-----------------|-----------------|-----------------|
---------------|-----------------|-----------------|-----------------|
--3------------|--3---------1-3--|--3--------5--6--|--3---------1-3--|


                                                      
-----------------|-----------------|-----------------|
-----------------|-----------------|-----------------|
-----------------|--3---------1-3--|--3----------5h7-|
--3--------5--6--|-----------------|-----------------|


                                                     
-----------------|----------------|-----------------|
-----------------|-----------5\---|-----------------|
--3---------1-3--|--3-------------|-----------------|
-----------------|----------------|--3---------1-3--|


                                                          
-----------------|-----------------|---------------------|
-----------------|-----------------|---------------------|
-----------------|-----------------|---------------3-4-5-|
--3--------5--6--|--3---------1-3--|--3------3-5-6-------|


                                                      
-----------------|-----------------|-----------------|
-----------------|-----------------|-----------------|
--6-----------6--|--6-----------5--|--5---------3-5--|
------------6----|-----------6-----|-----------------|

                     
                     From here, the time changes into 4/4                          
--------------------|----------------------------|
--------------------|4*--------------------------|
--5--5--5-----------|4*--------------------------|
-----------1--1--1--|------3---3-----3---3---1h2-|


                                                  
------------------------|------------------------|
------------------------|------------------------|
------------------------|------------------------|
--3---3-----3---3---5h6-|--3---3-----3---3---5h6-|


                                                  
------------------------|------------------------|
------------------------|------------------------|
------------------------|--------------------5h7-|
--3---3-----3---3---5h6-|--8---8-----8---8-------|


                                                  
------------------------|------------------------|
------------------------|------------------------|
--------------------5h7-|--------------------5h7-|
--8---8-----8---8-------|--8---8-----8---8-------|


                                                     
---------------------------|------------------------|
---------------------------|------------------------|
--------5h6----5h6---------|------------------------|
--8---8-----8------8-----8-|--3---3-----3---3---5h6-|


                                                  
------------------------|------------------------|
------------------------|------------------------|
------------------------|------------------------|
--3---3-----3---3---5h6-|--3---3-----3---3---5h6-|


                                                
----------------------|------------------------|
----------------------|------------------------|
----------------------|--6---6----4-6---6----4-|
--3---3-----3---3-----|------------------------|


                                                 
------------------------|-----------------------|
------------------------|-----------------------|
--6---6----4-6---6----4-|--5---5----3-5---5-----|
------------------------|-----------------------|


                                            
----------------------|-------------------||
----------------------|-------------------||
--5----3--------------|-------------------||
------------6----5----|--3----------------||





Comments


Popular Pink Floyd tabs & chords
Coming Back To Life 3 Bass Tabs
Learning To Fly Bass Tabs
Money Good Version Bass Tabs
Pigs On The Wing Chords
Waiting For The Worms 1 Chords
Buringb Tabs
Careful With That Axe Eugene Live Tabs
Comfortably Numb 10 Tabs
Fearless 1 Tabs
One Of The Few Tabs


Song lyrics



↑ Back to top | Tablatures and chords are parodies/interpretations of the original songs. You may use it for private study, scholarship, research or language learning purposes only
© 2014 AZChords.com Contact us | Privacy policy | DMCA | Add/correct tabs | Request tabs | Top 50 tabs