>
 >
Shine On Pt2

Shine On Pt2 Guitar Tabs

Pink Floyd - Shine On Pt2 chords, tabs, tablatures, lyrics

Guitar lessons | Add/correct | Request | Top 50 tabs Artists:  A B C D E F G H I J K L M N O P Q R S T U V W X Y Z 0-9

Shine On Pt2 Guitar Tabs – Pink Floyd

CD, Sheet music, Poster

Do you like Shine On Pt2? Share with your friends now
Tabs
Shine On You Crazy Diamond 
				part 2
			   by Pink Floyd





chords;
-------



	C			Gm7			Eb
-------12------		---------10-----	--------11-----
-------13------		---------11-----	--------11-----
-------12------		---------10-----	--------12-----
---------------		----------------	---------------
---------------		----------------	---------------
---------------		----------------	---------------


	D
-------10------
-------10------
-------11------
---------------
---------------
---------------



---------------0----
------6-------------		(19)>17---15--17----------------------5>(7)----(7)>5>3------5---3------
------------------------17\------------------------------------5----------5--


--18>15-----18---17>(18)--17vvv---------------------------------------------
--15----15--15---------------------18>15--18>(20)----18>(20)>18>15--18vvvv--



--18>15------18>15-----18>(20)---18>(20)>1815--18------------------
---------15--------15------------------------------18>(20)--18\----


--15>(17)>(19)>15--12--15>(16)vvv-12------6\5--3>(4)----------------------
-------------------------------------------------------5------------------
-----------------------------------------------------------4\3---1--3/5---


--------------------------6--------------------------------------
-----------------------------5/6--8/-------(11)>10>8------8/-----
------3--------------6>7------------------------------10---------
------3--3/5vvvvvv-----------------------------------------------
--4/5------------------------------------------------------------


---15--17>(19)>17>(19)----17>(19)>(20)vvvvv----17>(19)>(20)---17>(20>17--


--------------------------------15----15-----15--------------15---15--
----------------------------18>(20)------18>(20)>18>15---18>(20)------
--16---16>17>16\14>16--16---------------------------------------------


--17>(18)--17>(18)---17-----------------------------------------------
-------------------------18>(20)----(20)>18>15---18-------------------
-----------------------------------------------------17>(19)=====>17--


--(19)>17>15-----------------3---5---5>(7)>(8)>5---(8)>5--3--5--5>(7)vvvv--
--------------17\---------5------------------------------------------------


----------3----6-------------------------------------------------------
---5>(7)-----------5>(8)==========>5--(7)>5>3-----5--5>(7)vvvvvvvv>5---


Keyboard solo;

Gm					 Cm
------------------------------------------------------------
---------5\3-------------------5\3-------------------10\8---
------------------------------------------------------------
---3/5---5\3--------------3/5--5\3-------------8/10--10\8---
---------------------------------------5--------------------
------------------------------------6-----------------------


Gm		   Eb	   D	 Eb		D    Gm    Cm   Gm    D7#9
--------5\3-----8------7------8------11\---7---------------------------6----
---3/5--5\3-----8------7------8------11\---7---------------------------4----


solo

------15------------15---18>15-------------------3----------------0----------
--15-------18>(20)--------------18>(20)\------3------6-----------------------
---------------------------------------------------------5>(7)----5>3--5--3--


-----------------------------------------------------------18-----------------
--------------------------------------11----11-----18>(20)-----18>(20)vvvv18\-
----------15>(17)>15>(19)>15----11/12----12-----------------------------------
--5vvvv-----------------------------------------------------------------------


-------6>5--------------------------------------------------------------
------------6/8\--------------------------------------------------------
--6/7--------------(17)>15>(19)>15--------15--17>(18)>17>15--17--17>15--
------------------------------------15/17-------------------------------


-------------------------------3----------------------------------------------
----------------------------------6--------------------3----------------------
--17--17--17>15--17>(19)vvvv\--------5>(7)---5--3>(5)--3---3---5----3\2-------
---------------------------------------------------------5-------5------3-----


-----------------------------------------------15-------------------------
-------------------------------------18>(20)--------18>(20)-----18>(20)---
--------3---------15>(17)>15>(19)>0--------------------------0------------
-----------3>5------------------------------------------------------------
--4/5---------------------------------------------------------------------


--15--18>15--18>(20)vvv-----18>(20)>18>15--18---------------------------------
-----------------------------------------------18>(20)------------------------
-------------------------0-----------------------------------15--17--17>(19)--
---------------------------------------------------------17-------------------


--17>(20)---17>(20)>17---------------------------------14--15vvvv\--
-------------------------16vvvv---16>17>16\14--16--17--16--17vvvv\--

-----3-----------------------------------------------------------
--3----6---------------------------------------------------------
----------5>(7)vvvv>5---(8)>5>3---5--3----3----------------------
----------------------------------------5----5-------------------
------------------------------------------------5\3--1--3/5--5\--


legend;
-------


legato						---7>6>7----
bend(and release)				--7>(8)>7---
hold bend					--7>(8)===>7-
vibrato						--7vvvvvvvv-
slide						---7/8------





for Guitar World





Comments


Popular Pink Floyd tabs & chords
Goodbye Cruel World 1 Bass Tabs
Another Brick In The Wall (Part 2) Chords
Great Gig In The Sky Chords
Pigs On The Wing Part 2 Chords
Waiting For The Worms Drum Tabs
Mother Tabs
Signs Of Life 1 Tabs
Vegetable Man Tabs
Corporal Clegg Ukulele
Green Is The Colour Ukulele


Song lyrics



↑ Back to top | Tablatures and chords are parodies/interpretations of the original songs. You may use it for private study, scholarship, research or language learning purposes only
© 2014 AZChords.com Contact us | Privacy policy | DMCA | Add/correct tabs | Request tabs | Top 50 tabs