» » »

Pink Floyd, Shine On Tabs (ver.2)

Artists:  A B C D E F G H I J K L M N O P Q R S T U V W X Y Z # 

Shine On Tabs (ver.2)

Pink Floyd Tabs
 Rating:
4/5 (4 votes)
Shine On lessons Tabs too difficult? Try these video lessons and learn fast
                Shine On You Crazy Diamond
  			      part 5
			  by Pink Floyd




---------------0------------------------------0----
------6-----------------------------6--------------
---------0----(0)------------------------0---(0)---
--8-----------(8)---------------8------------(8)---
---------------------------------------------------
---------------------1313-----------------------


--8-------10------8------0------8------10-------8--------
----6--------6------6------6------6-------6--------6-----
---------------------------------------------------------
-------8-------8------8------8------8-------8---------8--
---------------------------------------------------------
---------------------------------------------------------


-0--------8--------10------8-------0------8--------10-------8--------
----6--------6---------6-----6-------6-------6--------6--------6-----
            
Submit corrections

comments powered by Disqus
↑ Back to top | Pink Floyd Tabs for Shine On. Lyrics for acoustic guitar and electric guitar. Tablatures and chords are parodies/interpretations of the original songs. You may use it for private study, scholarship, research or language learning purposes only