» » »

Pink Floyd, Run Like Hell Chords (ver.1)

Artists:  A B C D E F G H I J K L M N O P Q R S T U V W X Y Z # 

Run Like Hell Chords (ver.1)

Pink Floyd Tabs
 Rating:
4/5 (4 votes)
Run Like Hell lessons Tabs too difficult? Try these video lessons and learn fast
1
                "RUN LIKE HELL
				PINK FLOYD
				THE WALL


Here are the opening chords tabed finally. this song was hard to figure out.

-here are the opening chords-

---10--10--10---9----7-7--5------------------------------
---10--10--10---10---8-8--7---10--10-10--8---5-5-5--7-7-7
---7---7---7----7----7-7--7---9---9--9---7---7-7-7--7-7-7 repeat twice
------------------------------7---7--7---9---7-7-7--7-7-7
--------------------------------------------------------
--------------------------------------------------------


	     Em 
   you better paint you face up in your favorite disquise
	     Fm 
   with your button down hips and your roller blind eyes
	     Em
   with your empty smile and your hungry heart
	     Cmaj
   feel the ile rising from you guilty past
	     B7
   with your nerves in tatters as the cockleshell shatters 
	     Em
   and the hammers batter down your door
	     D (see elow for riff)
   		
		YOU BETTER RUN

	D riff

------------------------------------------------------
------------------------------------------------------
------------------------------------------------------
----------------3^0---3^0----------------------------- then go back to 
--5-5-5-5-5-5-5-----0-----5-5-5-5-5-5-5-3^0-5-00-5---- begging chords
------------------------------------------------------
	  
	     Em
   you better run all day and run all night
	     Fm
   and keep your dirty feelings deep inside
	     Em
   and if your taking your gilfriend out tonight
	     Cmaj
   you better park the car well out of sight
	     B7
   cause if they catch you in the backseat trying to pick her locks
	     Em
   THEIR GONNA SEND YOU BACK TO MOTHER IN A CARDBOARD BOX
	     D (riff)
   
		YOU BETTER RUN

		SOLO HERE. which by the way if anybody has it i would 
		greatly appriciate it. Thank you.

		Song ends with begging chords till the end. twice i think.
"            
Submit corrections

comments powered by Disqus
↑ Back to top | Pink Floyd Chords for Run Like Hell. Lyrics for acoustic guitar and electric guitar. 1 Tablatures and chords are parodies/interpretations of the original songs. You may use it for private study, scholarship, research or language learning purposes only