>
 >
Run Like Hell 2

Run Like Hell 2 Guitar Tabs

Pink Floyd - Run Like Hell 2 chords, tabs, tablatures, lyrics

Guitar lessons | Add/correct | Request | Top 50 tabs Artists:  A B C D E F G H I J K L M N O P Q R S T U V W X Y Z 0-9

Run Like Hell 2 Guitar Tabs – Pink Floyd

CD, Sheet music, Poster

Do you like Run Like Hell 2? Share with your friends now
Bass TabsBass Tabs v2ChordsDrum TabsTabsTabs v2Tabs v3Ukulele

Words & Music by Roger Waters & Dave Gilmour

Em      2 2 2 0 0 0
D       0 0 0 2 3 2
D5      0 0 0 2 3 x



all drop D tuning - D A D G B E
Gtr I, II, IV - 'overdrive w/flange + delay'
Gtr II - 'overdrive w/delay'


Intro
 4/4
  Gtr I
  S S S S Q  S S S S S S S S   S S S S S  E. H
|----------------------------|--------------------|
|----------------------------|--------------------|
|-x-x--------x-x---------x-x-|-----x-x-x----------|
|-x-x--------x-x---------x-x-|-----x-x-x----------|
|-----x-x--------x-x-x-x-----|-x-x----------------|
|-----x-x--------x-x-x-x-----|-x-x-------12\------|



                                  Q=116
  S S S S S S S S S S S S S S S S     Q      Q     H
|---------------------------------||------------------------------|
|---------------------------------||------------------------------|
|---------x-x-----x-x-----x-x-----||------------------------------|
|---------x-x-----x-x-----x-x-----||------------------------------|
|-------------x-x-----x-x-------x-||------------------------------|
|-x---x-x-----x-x-----x-x-----0-x-||-12\--------------------------|
|
|Gtr I, II
|                                     PM---------------------|
| W                                   E  S S e S S e S S e S S
|---------------------------------||------------------------------|
|---------------------------------||------------------------------|
|---------------------------------||------------------------------|
|---------------------------------||--0--0-0-0-0-0-0-0-0-0-0-0----|
|---------------------------------||------------------------------|
|---------------------------------||------------------------------|



  PM-------------------------------------------------
  e S S e S S e S S e S S   E S S e S S e S S e S S
|-------------------------|-------------------------|
|-------------------------|-------------------------|
|-------------------------|-------------------------|
|-0-0-0-0-0-0-0-0-0-0-0-0-|-0-0-0-0-0-0-0-0-0-0-0-0-|
|-------------------------|-------------------------|
|-------------------------|-------------------------|
                          |-Riff A

 --------------------------|
  E S S e S S  s S S S e S S
|-----------------------------|
|-----------------------------|
|-----------------------------|
|-0-0-0-0-0-0--0-0-0-0-0-0-0--|
|-----------------------------|
|-----------------------------|
                   end Riff A-|

  PM---------------------------------------------------
  e S S e S S e S S S S S S   E S S e S S S e S e S S
|---------------------------|-------------------------|
|---------------------------|-------------------------|
|---------------------------|-------------------------|
|-0-0-0-0-0-0-0-0-0-3p0---3p|=0-0-0-0-0-0-0-0-0-0-0-0-|
|-----------------------3---|-------------------------|
|---------------------------|-------------------------|


 -------------------------|
  E S S e S S s S S S e S S
|----------------------------||
|----------------------------||
|----------------------------||
|-0-0-0-0-0-0-0-0-0-0-0-0-0--||
|----------------------------||
|----------------------------||


w/Riff A x4
  Gtr III
   E  S  S  +S   E.      +H               +W
|-10-10-10-(10)--9-------(9)-----------|--(9)-------------------------|
|-10-10-10-(10)-10------(10)-----------|-(10)-------------------------|
|-11-11-11-(11)--9-------(9)-----------|--(9)-------------------------|
|--0--0--0--(0)--0-------(0)-----------|--(0)-------------------------|
|--------------------------------------|------------------------------|
|--------------------------------------|------------------------------|
|
| Gtr IV
|  E  S  S  +S   E.      +H               +W
|--2--2--2--(2)--0-------(0)-----------|--(0)-------------------------|
|--3--3--3--(3)--3-------(3)-----------|--(3)-------------------------|
|--2--2--2--(2)--2-------(2)-----------|--(2)-------------------------|
|--0--0--0--(0)--0-------(0)-----------|--(0)-------------------------|
|--------------------------------------|------------------------------|
|--------------------------------------|------------------------------|



  E S S +S  E.     +H              +W
|-7-7-7-(7)-5------(5)-----------|-(5)----------------------------|
|-8-8-8-(8)-7------(7)-----------|-(7)----------------------------|
|-7-7-7-(7)-7------(7)-----------|-(7)----------------------------|
|-0-0-0-(0)-0------(0)-----------|-(0)----------------------------|
|--------------------------------|--------------------------------|
|--------------------------------|--------------------------------|
|
| E S S +S  E.     +H              +W
|-----------2------(2)-----------|-(2)----------------------------|
|-3-3-3-(3)-3------(3)-----------|-(3)----------------------------|
|-0-0-0-(0)-2------(2)-----------|-(2)----------------------------|
|-0-0-0-(0)-0------(0)-----------|-(0)----------------------------|
|--------------------------------|--------------------------------|
|--------------------------------|--------------------------------|



  E S S +S  E.     +H              +H.                   S S E
|-5-5-5-(5)-3------(3)-----------|-(3)-------------------0-0-0---|
|-5-5-5-(5)-3------(3)-----------|-(3)-------------------2-2-2---|
|-6-6-6-(6)-4------(4)-----------|-(4)-------------------2-2-2---|
|-0-0-0-(0)-0------(0)-----------|-(0)-------------------2-2-2---|
|--------------------------------|-------------------------0-0---|
|--------------------------------|-------------------------------|
|
| E S S +S  E.     +H              +H.                   S S E
|--------------------------------|-------------------------------|
|-2-2-2-(2)-0------(0)-----------|-(0)---------------------------|
|-2-2-2-(2)-0------(0)-----------|-(0)-------------------x-x-2---|
|-0-0-0-(0)-0------(0)-----------|-(0)-------------------x-x-2---|
|--------------------------------|-----------------------x-x-0---|
|--------------------------------|-------------------------------|



  E E   H.                   +W
|-0-2---2------------------|-(2)----------------------------|
|-2-3---3------------------|-(3)----------------------------|
|-2-2---2------------------|-(2)----------------------------|
|-2-0---0------------------|-(0)----------------------------|
|-0------------------------|--------------------------------|
|--------------------------|--------------------------------|
|
| E E   H.                   +W
|--------------------------|--------------------------------|
|---3---3------------------|-(3)----------------------------|
|-2-2---2------------------|-(2)----------------------------|
|-2-0---0------------------|-(0)----------------------------|
|-0------------------------|--------------------------------|
|--------------------------|--------------------------------|


w/Riff A x4
     E  S  S  +S   E.      +H               +W
||--10-10-10-(10)--9-------(9)-----------|--(9)-------------------------|
||o-10-10-10-(10)-10------(10)-----------|-(10)-------------------------|
||--11-11-11-(11)--9-------(9)-----------|--(9)-------------------------|
||---0--0--0--(0)--0-------(0)-----------|--(0)-------------------------|
||o--------------------------------------|------------------------------|
||---------------------------------------|------------------------------|
|
|    E  S  S  +S   E.      +H               +W
||---2--2--2--(2)--0-------(0)-----------|--(0)-------------------------|
||o--3--3--3--(3)--3-------(3)-----------|--(3)-------------------------|
||---2--2--2--(2)--2-------(2)-----------|--(2)-------------------------|
||---0--0--0--(0)--0-------(0)-----------|--(0)-------------------------|
||o--------------------------------------|------------------------------|
||---------------------------------------|------------------------------|



  E S S +S  E.     +H              +W
|-7-7-7-(7)-5------(5)-----------|-(5)----------------------------|
|-8-8-8-(8)-7------(7)-----------|-(7)----------------------------|
|-7-7-7-(7)-7------(7)-----------|-(7)----------------------------|
|-0-0-0-(0)-0------(0)-----------|-(0)----------------------------|
|--------------------------------|--------------------------------|
|--------------------------------|--------------------------------|
|
| E S S +S  E.     +H              +W
|--------------------------------|--------------------------------|
|-3-3-3-(3)-3------(3)-----------|-(3)----------------------------|
|-0-0-0-(0)-2------(2)-----------|-(2)----------------------------|
|-0-0-0-(0)-0------(0)-----------|-(0)----------------------------|
|--------------------------------|--------------------------------|
|--------------------------------|--------------------------------|



  E S S +S  E.     +H              +H.                   +E  S S
|-5-5-5-(5)-3------(3)-----------|-(3)-------------------(3)-0-0-|
|-5-5-5-(5)-3------(3)-----------|-(3)-------------------(3)-2-2-|
|-6-6-6-(6)-4------(4)-----------|-(4)-------------------(4)-2-2-|
|-0-0-0-(0)-0------(0)-----------|-(0)-------------------(0)-2-2-|
|--------------------------------|---------------------------0-0-|
|--------------------------------|-------------------------------|
|
| E S S +S  E.     +H              +H.                   +E  S S
|--------------------------------|-------------------------------|
|-2-2-2-(2)-0------(0)-----------|-(0)-------------------(0)-----|
|-2-2-2-(2)-0------(0)-----------|-(0)-------------------(0)-2-2-|
|-0-0-0-(0)-0------(0)-----------|-(0)-------------------(0)-2-2-|
|--------------------------------|---------------------------0-0-|
|--------------------------------|-------------------------------|



  E E   H.                   +H.                   E S S
|-0-2---2------------------|-(2)---------------------0-0-|
|-2-3---3------------------|-(3)---------------------0-0-|
|-2-2---2------------------|-(2)---------------------5-5-|
|-2-0---0------------------|-(0)---------------------3-3-|
|-0-0---0------------------|-(0)---------------------3-3-|
|--------------------------|-------------------------3-3-|
|
| E E   H.                   +H.                   E S S
|--------------------------|-------------------------0-0-|
|---3---3------------------|-(3)---------------------0-0-|
|-2-2---2------------------|-(2)---------------------5-5-|
|-2-0---0------------------|-(0)---------------------3-3-|
|-0-0---0------------------|-(0)---------------------3-3-|
|---0---0------------------|-(0)---------------------3-3-|




  Gtrs III, IV
  W                      +H.                 E. S   W
|-0--------------------|-(0)-----------------0--0-|-0--------------------|
|-0--------------------|-(0)-----------------5--5-|-0--------------------|
|-5--------------------|-(5)-----------------5--5-|-9--------------------|
|-3--------------------|-(3)-----------------3--3-|-7--------------------|
|-3--------------------|-(3)-----------------3--3-|-7--------------------|
|-3--------------------|-(3)-----------------3--3-|-7--------------------|
|
| Gtrs I, II
| PM----------------------------------------------------------------|
| e e e S S S S S S Q     e  e e S S S S S S Q      e e E S S S S S S Q
|----------------------|--------------------------|----------------------|
|----------------------|--------------------------|----------------------|
|----------------------|--------------------------|----------------------|
|-3-1-3-1h3-3p1-1-3----|--3--1-3-1h3-3p1-1-3------|-7-5-7-5h7-7p5-5-7----|
|----------------------|--------------------------|----------------------|
|----------------------|--------------------------|----------------------|


  +H          +E   E   S S E
|-(0)---------(0)--0---0-0-0-|
|-(0)---------(0)--0---0-0-0-|
|-(9)---------(9)--9---9-9-9-|
|-(7)---------(7)--7---7-7-7-|
|-(7)---------(7)--7---7-7-7-|
|-(7)---------(7)--7---7-7-7-|
|
|  PM----------------|
|  e  e E S S  S S S S Q
|----------------------------|
|----------------------------|
|----------------------------|
|--7--5-7-5h7--7p5-5-7-------|
|----------------------------|
|----------------------------|


  W                       +W
|-----------------------|----------------------------|
|-3---------------------|-(3)------------------------|
|-2---------------------|-(2)------------------------|
|-0---------------------|-(0)------------------------|
|-0---------------------|-(0)------------------------|
|-0---------------------|-(0)------------------------|
|
| PM----------------------------------------------|
| e e e E S S S S E S S    e  e e S S E S S S S S S
|-----------------------|----------------------------|
|-----------------------|----------------------------|
|-----------------------|----------------------------|
|-0---0---0-0---0---0-0-|--0----0-----0---0-3p0---3p=|
|---3---3-----3---------|-----3---3-3-----------3----|
|-----------------------|----------------------------|


  +W
|---------------------------|
|-(3)-----------------------|
|-(2)-----------------------|
|-(0)-----------------------|
|-(0)-----------------------|
|-(0)-----------------------|
|
|  PM------------------------
|  e  e e S S S S S S E S S
|---------------------------|
|---------------------------|
|---------------------------|
|--0----0-----0-0---0---0-0-|
|-----3---3-3-----3---------|
|---------------------------|


                            Verse 1 & 2 & Synth Solo
                          $
  H         Q       E S S    +W
|---------------------0-0-||-(0)--------------------|
|---------------------0-0-||-(0)--------------------|
|---------------------0-0-||-(0)--------------------|
|---------------------2-2-||-(2)--------------------|
|---------------------2-2-||-(2)--------------------|
|---------------------2-2-||-(2)--------------------|
|
|------------------------------------------------|
| e e e S S S S S S E S S     e  e e S S S S S S Q
|-------------------------||------------------------|
|-------------------------||------------------------|
|-------------------------||------------------------|
|-0---0-----0-0---0---0-0-||--2--0-2-0h2-2p0-0-2----|
|---3---3-3-----3---------||------------------------|
|-------------------------||------------------------|


  +H.                 E S S   W                      +H.                 E S S
|-(0)-----------------0-0-0-|-0--------------------|-(0)-----------------0-0-0-|
|-(0)-----------------0-0-0-|-0--------------------|-(0)-----------------0-0-0-|
|-(0)-----------------0-0-0-|-0--------------------|-(0)-----------------0-0-0-|
|-(2)-----------------2-2-2-|-3--------------------|-(3)-----------------3-2-2-|
|-(2)-----------------2-2-2-|-3--------------------|-(3)-----------------3-2-2-|
|-(2)-----------------2-2-2-|-3--------------------|-(3)-----------------3-2-2-|
|
|  PM--------------------------------------------------------------------|
|  e  e e S S S S S S Q       E E E S S s S S s Q     E  E E S S s S S s Q
|---------------------------|----------------------|---------------------------|
|---------------------------|----------------------|---------------------------|
|---------------------------|----------------------|---------------------------|
|--2--0-2-0h2-2p0-0-2-------|-3-1-3-1-2-3p1-1-3----|--3--1-3-1-2-3p1-1-3-------|
|---------------------------|----------------------|---------------------------|
|---------------------------|----------------------|---------------------------|


  W                      +H.                 E S S   +W
|-0--------------------|-(0)-----------------0-0-0-|-(0)---------------------|
|-0--------------------|-(0)-----------------0-0-0-|-(0)---------------------|
|-0--------------------|-(0)-----------------0-0-0-|-(0)---------------------|
|-2--------------------|-(2)-----------------2-2-2-|-(2)---------------------|
|-2--------------------|-(2)-----------------2-3-3-|-(3)---------------------|
|-2--------------------|-(2)-----------------2-----|-------------------------|
|
| PM---------------------------------------------------------------------|
| e e e S S S S S S Q     e  e e S S S S S S Q        E  e e S S S S S S Q
|----------------------|---------------------------|-------------------------|
|----------------------|---------------------------|-------------------------|
|----------------------|---------------------------|-------------------------|
|-2-0-2-0-2-2p0-0-2----|--2--0-2-0-2-2p0-0-2-------|-------------------------|
|----------------------|---------------------------|--3--1-3-1-2-3p1-1-3-----|
|----------------------|---------------------------|-------------------------|


  +H.                 +E  S S
|-(0)-----------------(0)-0-0-|
|-(0)-----------------(0)-0-0-|
|-(0)-----------------(0)-0-0-|
|-(2)-----------------(2)-4-4-|
|-(3)-----------------(3)-2-2-|
|-----------------------------|
|
|  PM--------------------------
|  E  e e S S S S S S  Q
|-----------------------------|
|-----------------------------|
|-----------------------------|
|-----------------------------|
|--3--1-3-1-2-3p1-1-3---------|
|-----------------------------|


  W                      +H.                 S S S S
|-0--------------------|-(0)-----------------0-0-0-0--|
|-0--------------------|-(0)-----------------0-0-0-0--|
|-0--------------------|-(0)-----------------0-0-0-0--|
|-4--------------------|-(4)-----------------4-4-4-4--|
|-2--------------------|-(2)-----------------2-2-2-2--|
|----------------------|------------------------------|
|
|--------------------------------------------|
| e e e S S S S S S Q     e  e e S S S S S S Q
|----------------------|------------------------------|
|----------------------|------------------------------|
|----------------------|------------------------------|
|----------------------|------------------------------|
|-2-0-2-0-2-2p0-0-2----|--2--0-2-0-2-2p0-0-2----------|
|----------------------|------------------------------|


                                              To Coda
  Em                                             D
  Gtrs III, IV
    W                      +H.                 E S S
    |                       |                  | | |
    /                       /                  / / /

                                                     Gt
  a e e e S S S S S S Q     e  e e S S S S S S Q
|------------------------|---------------------------||
|------------------------|---------------------------||
|------------------------|---------------------------||
|-0h2-0-2-0-2-2p0-0-2----|--2--0-2-0-2-2p0-0-2-------||
|------------------------|---------------------------||
|------------------------|---------------------------||


Synth Solo enters 2nd time see below main score
  W
  |
  /
  PM----------------------|
  E S S e S S e   S S e S S
|---------------------------|
|---------------------------|
|---------------------------|
|-0-0-0-0-0-0-0---0-0-0-0-0-|
|---------------------------|
|---------------------------|
|
|r II
| e e   e S S S S S S Q
|---------------------------|
|---------------------------|
|---------------------------|
|-0-----0---0-0-0---0-------|
|---3-----3-------3---------|
|---------------------------|


  +W                                   +W
   |                                    |
   /                                    /

   PM-----------------------------------------------------------|
   E S S e   S S s S S S e       S S    E S S e S S e   S S e S S
|------------------------------------|----------------------------|
|------------------------------------|----------------------------|
|------------------------------------|----------------------------|
|--0-0-0-0---0-0-0-0-0-0-0-------0-0-|--0-0-0-0-0-0-0---0-0-0-0-0-|
|------------------------------------|----------------------------|
|------------------------------------|----------------------------|
|
|  e e   S S S S e   S S S     S S S    e e   e S S S S S S Q
|------------------------------------|----------------------------|
|------------------------------------|----------------------------|
|------------------------------------|----------------------------|
|--0-----0-----0-0-----0-3b3.5p0---3-|--0-----0---0-0-----0-------|
|----3-----3p0-------------------3---|----3-----3-----3p0---------|
|------------------------------------|----------------------------|


  1.                            2.
                                                        D.S. al Coda
                                Gtrs I, II
  PM------------------------------------------------|
  E S S e S S s S S S e S S     e S S e S S S S S S Q
|----------------------------||---------------------------||
|---------------------------o||---------------------------||
|----------------------------||---------------------------||
|-0-0-0-0-0-0-0-0-0-0-0-0-0--||-0-----0-----0-----0-------||
|---------------------------o||---3-4---3-4---3p0---------||
|----------------------------||---------------------------||
|
|                               Gtr III
| PM------------------|
| e e   e S S S S S S Q         H           Q       E  E
|----------------------------||------------------------0--||
|---------------------------o||------------------------0--||
|----------------------------||------------------------0--||
|-0-----0---0-0-----0--------||------------------------2--||
|---3-----3-----3p0---------o||------------------------2--||
|----------------------------||------------------------2--||


 Breakdown
  &
  D5
  Gtrs III, IV
  W                         +W
  |                          |
  /                          /

  Gtrs I, II
  PM-----------------------------------------|
  e S S e S S e S S e S S    e S S e S S e S S S S S S
|-------------------------|-----------------------------|
|-------------------------|-----------------------------|
|-------------------------|-----------------------------|
|-0-0-0-0-0-0-0-0-0-0-0-0-|--0-0-0-0-0-0-0-0-0-3p0---3p=|
|-------------------------|------------------------3----|
|-------------------------|-----------------------------|


  +W                           W
   |
   /

   PM------------------------------------------------|
   e S S e S S S S S S e S S   E S S E S S E S S S S E
|----------------------------|-------------------------|
|----------------------------|-------------------------|
|----------------------------|-------------------2p0---|
|--0-0-0-0-0-0-0-0-0-0-0-0-0-|-0-0-0-0-0-0-0-0-0-----3-|
|----------------------------|-------------------------|
|----------------------------|-------------------------|


  PM  PM-----------------------
  s S S S e S S S S S S e S S
|-----------------------------|
|-----------------------------|
|-----------------------------|
|-----0-0-0-0-0-0-0-0-0-0-0-0-|
|-3s5-------------------------|
|-----------------------------|


 -------------------|           PM----------------------|
  e S S e S S S S S S S S S S   e S S e S S S S S S e S S
|-----------------------------|----------------------------|
|-----------------------------|----------------------------|
|-----------------------------|----------------------------|
|-0-0-0-0-0-0-0-0-0-0-3p0---3p|=0-0-0-0-0-0-0-0-0-0-0-0-0--|
|-------------------------3---|----------------------------|
|-----------------------------|----------------------------|


  PM--------------|
  E S S E S S E S S S S S S
|---------------------------|
|---------------------------|
|-------------------2p0---2-|
|-0-0-0-0-0-0-0-0-0-----3---|
|---------------------------|
|---------------------------|


   E       +E    Q     H             e S S e S S e S S S S S S
|-13b14---(13)---------------------|---------------------------|
|----------------------------------|---------------------------|
|----------------------------------|-------------------2p0-----|
|--------------0-0-0-0-0-0-0-0-0-0-|-0-0-0-0-0-0-0-0-0-----3p0-|
|--3s===5--------------------------|---------------------------|
|----------------------------------|---------------------------|
   s    E      S e S S S E S e S S


  PM--------------------------------------------|
  e S S e S S S S S S e S S   e S S e S S S S S S S S S S
|---------------------------|-----------------------------|
|---------------------------|-----------------------------|
|---------------------------|-----------------------------|
|-0-0-0-0-0-0-0-0-0-0-0-0-0-|-0-0-0-0-0-0-0-0-0-0-3p0---3p|
|---------------------------|-------------------------3---|
|---------------------------|-----------------------------|


  PM----------------------|
  e S S e S S S S S S e S S
|-----------------------------|
|-----------------------------|
|-----------------------------|
|-0-0-0-0-0-0-0-0-0-0-0-0-0---|
|-----------------------------|
|-----------------------------|


  PM---------------------------------------------------
  e S S e S S e S S e S S   e S S e S S S S S S e S S
|-------------------------|---------------------------|
|-------------------------|---------------------------|
|-------------------------|---------------------------|
|-0-0-0-0-0-0-0-0-0-0-0-0-|-0-0-0-0-0-0-0-0-0-0-0-0-0-|
|-------------------------|---------------------------|
|-------------------------|---------------------------|


 -----------------|
  e S S e S S e S S S S S S
|-----------------------------|
|-----------------------------|
|-----------------------------|
|-0---0-0-0-0-0-0-0-3p0-3-3p==|
|---3-------------------------|
|-----------------------------|


  PM----------------------------------------------|
  e S S e S S S e S e S S   e S S e S S e S S e S S
|-------------------------|-------------------------|
|-------------------------|-------------------------|
|-------------------------|-------------------------|
|-0---0-0-0-0-0-0-0-0-0-0-|-0-0-0-0-0-0-0-0-0-0-0-0-|
|---3---------------------|-------------------------|
|-------------------------|-------------------------|


                  PM--------|
  S S S S S S S S e S S e S S
|------------------------------|
|------------------------------|
|------------------------------|
|-----0-----0-----0-0-0-0-0-0--|
|-3s5---3s5---3s5--------------|
|------------------------------|


  PM--------------|
  e S S e S S e S S S S S S
|---------------------------|
|---------------------------|
|-------------------2p0---2p|
|-0-0-0-0-0-0-0-0-0-----3---|
|---------------------------|
|---------------------------|


    PM--------------------------------------------|
  e S S e S S S e S e S S   e S S e S S S e S e S S
|-------------------------|-------------------------||
|-------------------------|-------------------------||
|-0-----------------------|-------------------------||
|---0-0-0---0-0-0-0-0-0-0-|-0---0-0---0-0-0-0-0-0-0-||
|---------3---------------|---3-----3---------------||
|-------------------------|-------------------------||


 Outro
w/Riff A
  Gtr III
   E  S  S  +S   E.      +H               +W
|-10-10-10-(10)--9-------(9)-----------|--(9)-------------------------|
|-10-10-10-(10)-10------(10)-----------|-(10)-------------------------|
|-11-11-11-(11)--9-------(9)-----------|--(9)-------------------------|
|--0--0--0--(0)--0-------(0)-----------|--(0)-------------------------|
|--------------------------------------|------------------------------|
|--------------------------------------|------------------------------|
|
| Gtr IV
|  E  S  S  +S   E.      +H               +W
|--2--2--2--(2)--0-------(0)-----------|--(0)-------------------------|
|--3--3--3--(3)--3-------(3)-----------|--(3)-------------------------|
|--2--2--2--(2)--2-------(2)-----------|--(2)-------------------------|
|--0--0--0--(0)--0-------(0)-----------|--(0)-------------------------|
|--------------------------------------|------------------------------|
|--------------------------------------|------------------------------|



  E S S +S  E.     +H              +W
|-7-7-7-(7)-5------(5)-----------|-(5)----------------------------|
|-8-8-8-(8)-7------(7)-----------|-(7)----------------------------|
|-7-7-7-(7)-7------(7)-----------|-(7)----------------------------|
|-0-0-0-(0)-0------(0)-----------|-(0)----------------------------|
|--------------------------------|--------------------------------|
|--------------------------------|--------------------------------|
|
| E S S +S  E.     +H              +W
|-----------2------(2)-----------|-(2)----------------------------|
|-3-3-3-(3)-3------(3)-----------|-(3)----------------------------|
|-0-0-0-(0)-2------(2)-----------|-(2)----------------------------|
|-0-0-0-(0)-0------(0)-----------|-(0)----------------------------|
|--------------------------------|--------------------------------|
|--------------------------------|--------------------------------|
|
|------------------------------------------------------------|
| E S S  e     S S  e  S S e S S    E  S S e S S s S S S e S S
|--------------------------------|--------------------------------|
|--------------------------------|--------------------------------|
|--------------------------------|--------------------------------|
|-0-0-0--0-----0-0--0--0-0-0-0-0-|--0--0-0-0-0-0-0-0-0-0-0-0-0----|
|--------------------------------|--------------------------------|
|--------------------------------|--------------------------------|


  E S S +S  E.     +Q.       E     E E E E E E E E   E E E E +H
|-5-5-5-(5)-3------(3)-------3---|-3-3-3-3-3-3-3-3-|-3-3-2-2-(2)----*|
|-5-5-5-(5)-3------(3)-------3---|-3-3-3-3-3-3-3-3-|-3-3-3-3-(3)----*|
|-6-6-6-(6)-4------(4)-------4---|-4-4-4-4-4-4-4-4-|-4-4-2-2-(2)----*|
|-0-0-0-(0)-0------(0)-------0---|-0-0-0-0-0-0-0-0-|-0-0-0-0-(0)----*|
|--------------------------------|-----------------|-----0-0-(0)----*|
|--------------------------------|-----------------|-----0-0-(0)----*|
|
| E S S +S  E.     +Q.       E     E E E E E E E E   E E E E +H
|--------------------------------|-----------------|----------------*|
|-2-2-2-(2)-0------(0)-------0---|-0-0-0-0-0-0-0-0-|-0-0-3-3-(3)----*|
|-2-2-2-(2)-0------(0)-------0---|-0-0-0-0-0-0-0-0-|-0-0-2-2-(2)----*|
|-0-0-0-(0)-0------(0)-------0---|-0-0-0-0-0-0-0-0-|-0-0-0-0-(0)----*|
|--------------------------------|-----------------|-----0-0-(0)----*|
|--------------------------------|-----------------|-----0-0-(0)----*|
|
| PM---------------------------------------------------------|
| E S S  e     S S  e  S S e S S   E E E E E E E E   E E E E +H
|--------------------------------|-----------------|----------------*|
|--------------------------------|-----------------|----------------*|
|--------------------------------|-----------------|----------------*|
|-0-0-0--0-----0-0--0--0-0-0-0-0-|-0-0-0-0-0-0-0-0-|-0-0-0-0-(0)----*|
|--------------------------------|-----------------|----------------*|
|--------------------------------|-----------------|----------------*|


 Synth Solo arr. for guitar
  Gtrs I, II
                       ~~~~~~~~~~~~~~~~~~
  W          +H.      +Q     +W
|----------|---------------|------------|
|----------|---------------|------------|
|-7--------|-(7)------(7)--|-(7)--------|
|----------|---------------|------------|
|----------|---------------|------------|
|----------|---------------|------------|


                                 \1/
 ~~~~~               ~~~~~~~~~~~~~~~~
  +H.       S  E.    W           W
|-------------10--||----------|---------|
|----------10-----||----------|-12------|
|-(7)-------------||-9--------|---------|
|-----------------||----------|---------|
|-----------------||----------|---------|
|-----------------||----------|---------|


                              \1/
   ~~~               ~~~              ~~~~~~~~
   H.       E.  S    H.       Q       H     H
|----------13-----|-13-------13----|-12----------|
|-13-----------13-|----------------|-------12----|
|-----------------|----------------|-------------|
|-----------------|----------------|-------------|
|-----------------|----------------|-------------|
|-----------------|----------------|-------------|


             ~~~~~~~~~~~~~            ~             ~~
   S  S  E  +H.         W           a W          a  W
|-12----12-(12)------|-15--------|-15s8--------|-8s14----|
|----12--------------|-----------|-------------|---------|
|--------------------|-----------|-------------|---------|
|--------------------|-----------|-------------|---------|
|--------------------|-----------|-------------|---------|
|--------------------|-----------|-------------|---------|


      ~~~~~~~~~~~              ~~~~~~~~~~~
   a  H.       Q     H.       +Q      +H.      Q     W
|-14s19-------17--|-19-------(19)--|-(19)---------|-15b17=========|
|-----------------|----------------|--------------|---------------|
|-----------------|----------------|--------------|---------------|
|-----------------|----------------|--------------|---------------|
|-----------------|----------------|--------------|---------------|
|-----------------|----------------|--------------|---------------|


    ~~~~~~~~~~~~~~~~~
   +W            +W            +Q    +Q    +Q    +Q
|-(15)--------|-(15)--------|-(15)r=(15)--(15)--(15)b17----*|
|-------------|-------------|------------------------------*|
|-------------|-------------|------------------------------*|
|-------------|-------------|------------------------------*|
|-------------|-------------|------------------------------*|
|-------------|-------------|------------------------------*|





Comments


Popular Pink Floyd tabs & chords
Another Brick In The Wall (Part 2) 2 Bass Tabs
Echoes Part 1 Live Bass Tabs
Another Brick In The Wall Chords
Vera Chords
Hey You Drum Tabs
Echoes Live Tabs
Is There Anybody Out There? 2 Tabs
Keep Talking Tabs
Any Colour You Like Ukulele
Remember A Day Ukulele


Song lyrics



↑ Back to top | Tablatures and chords are parodies/interpretations of the original songs. You may use it for private study, scholarship, research or language learning purposes only
© 2014 AZChords.com Contact us | Privacy policy | DMCA | Add/correct tabs | Request tabs | Top 50 tabs