» » »

Pink Floyd, Pigs (Three Different Ones) Tabs (ver.2)

Artists:  A B C D E F G H I J K L M N O P Q R S T U V W X Y Z # 

Pigs (Three Different Ones) Tabs (ver.2)

Pink Floyd Tabs
 Rating:
4/5 (4 votes)
Pigs (Three Different Ones) lessons Tabs too difficult? Try these video lessons and learn fast
1
                "(1)
I've been looking for a tab of Pigs on this site, because this is the best tab site out
and I couldn't find a good guitar tab. A couple of 5 star ones were on that tab
but I didn't want to fool with that. I found this tab on a Pink Floyd fan site. It's a 
tab, but I wanted it on this site. All of the credit goes to them. If you want to see the
bass transcripted, the other people who attempted this tab, who were harshly rated, did a 
job on that.

PIGS (THREE DIFFERENT ONES) Pink Floyd
(R. Waters)

Em  C  Em  C  .....

INTRO (SYNTH):
---0-2-3-2-0-2-3---0-2-3-2-0-2-3---0-2-3-2-0-2-3---0-2-3-2-0-2-3-------|
-0---------------0---------------1---------------1---------------------|
-----------------------------------------------------------------------|
-----------------------------------------------------------------------|
-----------------------------------------------------------------------|
-----------------------------------------------------------------------|

-17b---------------------------------------------------17b------------|
------------19----0-0--0--0----0-0--0--0----0-0--0--0------0-0--0--0--|
------------------0-0--0--0----0-0--0--0----0-0--0--0------0-0--0--0--|
------------------9-9--9--9----5-5--5--5----5-5--5--5------5-5--5--5--|
------------------7-7--7--7----3-3--3--3----7-7--7--7------3-3--3--3--|
----------------------------------------------------------------------|

-------------------------------------------------------0--0--0--------|
-0-0--0--0----0-0--0--0-----0-0--0--0------------------0--0--0--------|
-0-0--0--0----0-0--0--0-----0-0--0--0------------------0--0--0--------|
-5-5--5--5----9-9--9--9--\5-5-5--5--5------5-----------2--2--2---2--2-|
-3-3--3--3----7-7--7--7-----3-3--3--3--3-3-3---3----------------------|
--------------------------------------------------3-2-----------------|

--17b-----------3--3---2--0--------0-------------|
-------1-1------3--3---3--0--15pb--0-------------|
-------0-0------4--4---3--0--------0-------------|
-------2-2-2----5--5---------------2-------------|
----------------5--5---------------2-------------|
-------3-3------3--3---------------0-------------|

Em                C                 G     Em
Big man, pig man, ha ha charade you are
                          C                 G    Em
You well heeled big wheel, ha ha charade you are
   C                         G
And when your hand is on your heart
A7
You're nearly a good laugh, almost a joker

With your head down the pigbin saying keep on digging
Am7
Pig stain on your fat chin

What do you hope to find down in the pig mine

You're nearly a laugh, you're nearly a laugh
                Em    C         Em  D  Em  D  Em  D  Em  D
But you really a cry______

Em                C                 G      Em
Bus stop rat bag, ha ha charade you are
                      C                 G    Em
You f**ked up old hag, ha ha charade you are
C                                 G
You radiate cold shafts of broken glass
A7
You're nearly a good laugh, almost worth a quick grin

You like the feel of steel, you're hot stuff with a hat pin
Am7
And good fun with a hand gun

You're nearly a laugh, you're nearly a laugh
                   Em    C     Em  D  Em  D  Em  D  Em  D
But you're really a cry______


Em  D  Em  D  Em  D  Em  D  Em  D  Em  D  Em  D  Em  D

C  Bb  C  Bb  C  Bb  C  Bb  C  Bb  C  Bb  Em  ....

Em  C  Em  C  Em  C  Em  C  Em  C  Em  C  Em  C


Em                   C                 G    Em
Hey you, Whitehouse, ha ha charade you are
                           C                 G    Em
You house proud town mouse, ha ha charade you are
      C                                  G
You're trying to keep our feeling off the street
Am
You're nearly a real treat, all tight lips and cold feet

And do you feel abused

.......!  .......!  .......!  .......!

You gotta stem the evil tide and keep it all on the inside

Mary, you're nearly a treat, Mary, you're nearly a treat
                   Em   C      Em  D  Em  D  Em  D  Em  D
But you're really a cry_____

Em  D  C  D
[Repeat and fade]

Solo  ~~~~~~~~~~                                      ~~~~~~~~~
-12------------12----12----12---------12-------12--------------12--12-12--|
-15b-----------15b---15b---15b--------15b----------15pb--------15b----15b-|
--------------------------------------------------------------------------|
--------------------------------------------------------------------------|
--------------------------------------------------------------------------|
--------------------------------------------------------------------------|
          ~~~~                           ~~~~~~~~
~~~~~
-12-12---12----14---14---14---14\-------15------------15b--12--15/17--17b-|
----15b--15b---17b--17b--17b--17\---12------------12-------12-------------|
--------------------------------------------------------------------------|
--------------------------------------------------------------------------|
--------------------------------------------------------------------------|
--------------------------------------------------------------------------|
        1 1/2
-17/19-19b-----19--17--17\15--17/19--17--15--14--15--14------14-----------|
---------------------------------------------------------17-----17--15----|
--------------------------------------------------------------------------|
--------------------------------------------------------------------------|
--------------------------------------------------------------------------|
--------------------------------------------------------------------------|
                                    1/2~~~~~~~        1/2
~~~~
-----------------12-------------------------------------------------------|
-15--14-13\12-15----12h13p12-----12---------------------------------------|
------------------------------14---14b--------12--14--14pb-p12---14-12----|
---------------------------------------------------------------14------14-|
--------------------------------------------------------------------------|
--------------------------------------------------------------------------|
         1/2~~~~ 1/2                   ~~~~~~                 ~~~~
--------------------------------------------------------------------------|
------15-15-----15b----15----------12-----------------------------0-----0-|
-x-x-----14b----14b----14p12---14--12-----------------------------0---x-0-|
--------------------------------------14--12------------------------------|
------------------------------------------12--14\12p10--12p10-------------|
--------------------------------------------------------------12----------|

---------------------------3-----3------3-------5---5\3------/12--12------|
-------------------------------------------------------------/12-----12---|
-2b---2b---2b------0--2/4----/4----/4------4/6------6\4---4---------------|
----------------2---------------------------------------------------------|
--------------------------------------------------------------------------|
--------------------------------------------------------------------------|
                                       ~~~~~~~~~~~~~~        1/2
-15p12-7--15p12-7--15p12-7--15p12-7---15b------------15--14--14b----14-12-|
--------------------------------------------------------------------------|
--------------------------------------------------------------------------|
--------------------------------------------------------------------------|
--------------------------------------------------------------------------|
--------------------------------------------------------------------------|
        ~~~~                                                       1/4
-12-----------------------------------------------------------------------|
----15b-----15p12----12-12------------------------------------------------|
------------------14-------14pb--12-14p12----12---------------------------|
------------------------------------------14----14-13-12----12------------|
---------------------------------------------------------14----14--10--12-|
--------------------------------------------------------------------------|
                                                               ~~~~~~
-------------------------------------------12----15-----------------------|
-12----------12-------14-14b----------15b--15b--------15b--12--15-----15\-|
-12----------12---14--14-14b--14--12--------------------------------------|
----14p12-----------------------------------------------------------------|
----------14--------------------------------------------------------------|
--------------------------------------------------------------------------|
                                           ~~~~~~~              1/4
---------------14---------14-------14-------------------------------------|
-x-15--15---------14----------15-------14---------------------------------|
-----------14---------14---------14--------14b----0-14b-12-14--12b--------|
-------------------------------------------------------------------14-----|
----------------------------------------------------------------------14\-|
--------------------------------------------------------------------------|

----------x---------------------------------------------------------------|
--0--15------15-----------15----------------------------------------------|
--0--14b-----14b--12--12-----12--14--14b--14pb--12----14-12---------------|
--0------------------------------------------------14-------14-12---------|
------------------------------------------------------------------12\-10--|
--------------------------------------------------------------------------|
                                                               Repeat
once
--------------------------------------------------------------------------|
---------12--12--12--12--12--12-12--12---12-12--12-0-----12--0---12---12--|
---------12--12--12--12--12--12-12--12---12-12--12---0---12----0-12---12--|
--------------------------------------------------------------------------|
-12p10--------------------------------------------------------------------|
-------12-----------------------------------------------------------------|
                                                      Play until song
ends
--15p12----15p12----15p12----15p12----15p12----15p12----15p12-----15p12----|
--------12-------12-------12-------12-------12-------12-------12--------12-|
---------------------------------------------------------------------------|
---------------------------------------------------------------------------|
---------------------------------------------------------------------------|
---------------------------------------------------------------------------|

NOTATION USED:
        b= bend up one full tone (unless otherwise noted)
        pb= Pre bend up one full tone (unless otherwise noted)
        ~~= Vibrato
         /=Slide up
         \=Slide down
"            
Submit corrections

comments powered by Disqus
↑ Back to top | Pink Floyd Tabs for Pigs (Three Different Ones). Lyrics for acoustic guitar and electric guitar. 1 Tablatures and chords are parodies/interpretations of the original songs. You may use it for private study, scholarship, research or language learning purposes only