>
 >
Mother 5

Mother 5 Guitar Tabs

Pink Floyd - Mother 5 chords, tabs, tablatures, lyrics

Guitar lessons | Add/correct | Request | Top 50 tabs Artists:  A B C D E F G H I J K L M N O P Q R S T U V W X Y Z 0-9

Mother 5 Guitar Tabs – Pink Floyd

CD, Sheet music, Poster

Do you like Mother 5? Share with your friends now
Bass TabsChordsChords v2Chords v3Drum TabsTabsTabs v2Tabs v3Tabs v4Tabs v5Tabs v6Tabs v7Ukulele

                                  Mother Solo At
                                     At 2:49

Legend:
1.Bend:       15b(17) [b] (Bend the 15 Fret full step)
2.Vibrato:    15~ [~]
3.Pull Off:   14p15 [p]
4.Hammer-On:  7h9 [h]
5.Slide Up:   7/9 [/]
6.Slide Down: 9\7 [\]
7.Release:    14b(16)r [r](Bend and then release to 14 fret)
8.Bend Down:  3bd         (Bend the string a little down)


e|---------------------------------------------|---------------------------------|
B|-----13b(15)--13b(15)--13p12--13-------------|---------------------------------|
G|--12-----------------------------------------|------5---5\4--------------------|
D|---------------------------------14p13--14~--|---------------------------------|
A|---------------------------------------------|-2/7----7------5~--2h3-3-3bd--3--|
E|---------------------------------------------|---------------------------------|

e|--------------------------------------------8---------------|
B|-------8--10b(12)--10b(12)--10b(12)--10p8-------------------|
G|--2/8-----------------------------------------9p8~----------|
D|------------------------------------------------------------|
A|------------------------------------------------------------|
E|------------------------------------------------------------|

e|--10-12b(14)--10~--8-10(b12)--8~--8p7--8p7-------------|
B|--10---------------8-----------------------8-----------|
G|--11---------------9-------------------------7-5\4-----|
D|----------------------------------------------------5~-|
A|-------------------------------------------------------|
E|-------------------------------------------------------|


Hope you like it and enjoy it!





Comments


Popular Pink Floyd tabs & chords
Interstellar Overdrive Bass Tabs
Pigs Chords
The Wall Chords
Wearing The Inside Out 2 Chords
Astronomy Domine Tabs
Comfortably Numb (Solo Ver 2) Tabs
Shine On Pt3 Tabs
Vegetable Man Tabs
Paintbox Ukulele
Signs Of Life Ukulele


Song lyrics



↑ Back to top | Tablatures and chords are parodies/interpretations of the original songs. You may use it for private study, scholarship, research or language learning purposes only
© 2014 AZChords.com Contact us | Privacy policy | DMCA | Add/correct tabs | Request tabs | Top 50 tabs