» » »

Pink Floyd, Mother Chords (ver.1)

Artists:  A B C D E F G H I J K L M N O P Q R S T U V W X Y Z # 

Mother Chords (ver.1)

Pink Floyd Tabs
 Rating:
4/5 (4 votes)
Mother lessons Tabs too difficult? Try these video lessons and learn fast
1
                Pink Floyd
The Wall

Chords Used:
  G   Cadd9   C     D     F
|-3-----3-----0-----2-----1-
|-3-----3-----1-----3-----1-
|-0-----0-----0-----2-----2-
|-0-----2-----2-----0-----3-
|-2-----3-----3-----------3-
|-3-----------------------1-
 
G                                    Cadd9   G
Mother do you think they’ll drop the bomb?

(G)                                   Cadd9   G
Mother do you think they’ll like this song?

Cadd9                                       G
Mother do you think they’ll try to break my balls?

D        Cadd9
oooooooo aaaaa  

(Cadd9)                   G
Mother should I build the wall?


(G)                           Cadd9   G
Mother should I run for president?

(G)                             Cadd9   G
Mother should I trust the government?

Cadd9                                   G
Mother will they put me in the fiiirin’ line?

D         Cadd9
ooooooooo aaaaa

(Cadd9)               G
Is it just a waste of time?


G                              C
Hush now, baby, baby don’t you cry

F                             C
Mama’s gonna make all of your nightmares come true

F                           C
Mama’s gonna put all of her fears into you

F                                 C
Mama’s gonna keep you right here under her wing

    F                          C
She won’t let you fly, but she might let you sing

F                        C        G
Mama’s gonna keep babyyy cozy and warm


D         C
ooooooooo baaabe

D         C
ooooooooo baaabe

D
ooo baby

   C
Of course Mama’s gonna help buuuiild the wall____

|--------------------------------------------------------------------------------------------
|----13b(15)~~~~~~~--13b(15)~~~--13-12-13----------------------------------------------------
|-12----------------------------------------9p8-9~~~~~---------------------------------------
|--------------------------------------------------------4-5-4-5-----------------------------
|----------------------------------------------------------------5~~~~~~--3-2-3~~~(3)/5---3~~
|--------------------------------------------------------------------------------------------

|------------------------------------------------------------
|----8--10b(12)~~~10b(12)~~~~10b(12)---10b-8-10b(13)---------
|-/7---------------------------------------------------9p8-9-
|------------------------------------------------------------
|------------------------------------------------------------
|------------------------------------------------------------

|-12b(14)~~~10~~~~~-10b(12)~~~-8~~~~---8p7-8p7----------------
|----------------------------------------------8--------------
|------------------------------------------------7/5/4--------
|------------------------------------------------------5~~~~~-
|-------------------------------------------------------------
|-------------------------------------------------------------

G                                Cadd9         G
Mother do you think she’s good enough      for me?

(G)                             Cadd9           G
Mother do you think she’s dangerous?     Tell me...

Cadd9                                      G         
Mother will she tear your little booyyy apart?

D         Cadd9
ooooooooo aaa

(Cadd9)                   G
Mother will she break my heart?


(G)                           C 
Hush now baby, baby don’t you cry

F                               C
Mama’s gonna check out all your girlfriends for you

F                        C
Mama won’t let anyooonne dirty get through

F                       C
Mama’s gonna wait up until you get in

F                     C             
Mama will always find out where you been

F                      C           G
Mama’s gonna keep baby healthy and clean




D         C
ooooooooo baaabe

D         C
ooooooooo baaabe

D
ooo baby

       C                 G
You’ll always be baby to me

(G)                         C
Mother did it need to be so high?
            
Submit corrections

comments powered by Disqus
↑ Back to top | Pink Floyd Chords for Mother. Lyrics for acoustic guitar and electric guitar. 1 Tablatures and chords are parodies/interpretations of the original songs. You may use it for private study, scholarship, research or language learning purposes only