» » »

Pink Floyd, Keep Talking Tabs (ver.1)

Artists:  A B C D E F G H I J K L M N O P Q R S T U V W X Y Z # 

Keep Talking Tabs (ver.1)

Pink Floyd Tabs
 Rating:
4/5 (4 votes)
Keep Talking lessons Tabs too difficult? Try these video lessons and learn fast
                                             Keep Talking
                              Pink Floyd
                           The Division Bell

This is not an exact tab, call me lazy if you want but I just dont see
the point of copying down to the last ghost note. This tab is close
enough for me.

legends used are
= susatain
~ vibrato
/ slide up
\ slide down
2^(4)^2 pick second fret then bend to pitc corresponding fourth fret
        then release back
(4)^2 the same as above, but prebend and then pick and release
p pulloff
h hammeron
<7> natural or artificial harmonics at seventh fret
[7] pinch harmonic at seventh fret
dive means dive with your whammy or tremolo arm

It begins with theese notes played with an e-bow

e-------------------|
B--8==-10==-12==----|
G-------------------|
D-------------------|
A-------------------|
E-------------------| repeat until first solo

First solo with clean sound and delay and some flanger like sound
e--0-----------------------------------------------12~------|
B--0--------------------------------------------15----------|
G--0---14^(16)(16)^14~-^(16)^14p12-14~--14^(16)-------------|
D--2--------------------------------------------------------|
A--2--------------------------------------------------------|
E--0--------------------------------------------------------|


e--12h15-14~-15p14p12h14~---------------------------------------|
B---------------------------15----------------------------------|
G------------------------------14~--14^(16)^14p12~-12h14p12\11~-|
D---------------------------------------------------------------|
A---------------------------------------------------------------|
E---------------------------------------------------------------|

e----------------------------------------------------------------|
B----------------------------------------------------------------|
G--11h12p11\9~--7-/12-12~-7h9/11-^(12)^11p9-11~----9-11-11^(12)~-|
D----------------------------------------------------------------|
A----------------------------------------------------------------|
E----------------------------------------------------------------|

e-----------------------------------------------------------|
B-12~--15^(17)^(17)^(17)^15~--------------------------------|
G-----------------------------------------------------------|
D-----------------------------------------------------------|
A-----------------------------------------------------------|
E-----------------------------------------------------------|


Then theres the repeating bagcking guitar, played with heavy delay
e--------------------------------------------|
B--------------------------------------------|
G--------------------------------------------|
D--------------------------------------------|
A-------5-----7-----7-----7-----5-----5------|
E----0----(0)-----0-----0-----0-----0--------|

Then theres the second solo, with overdrive and distortion
e----------------------------------------------------------|
B--12-----~-------------------12=--------------12----------|
G--14^(16)~----^(16)^14p12----12=--14p12-------12----------|
D--------------------------14------------14p12----14~------|
A----------------------------------------------------------|
E----------------------------------------------------------|
   Unison bend                double stop


e--12-------12-=-----------------------------------------12-|
B--15^(17)-(17)=--------------------------------------12----|
G---------------------12=--12----12--x-12------14^(16)------|
D---------------------12=--12----12--x-12-------------------|
A-----------------------------14----------14~---------------|
E-----------------------------------------------------------|
   unison bend


e------------------------------------|
B-15-15^(17)~--15^(17)-15-12---------|
G----------------------------14-12~--|
D------------------------------------|
A------------------------------------|
E------------------------------------|

e------0-------------------------------------------|
B----0-------------------0-x-0---------------------|
G-/4-----4p2p0-----------0-x-0---------------------|
D--------------0-2~--0-2-------2~-----------5\4----|
A---------------------------------x-/7~-5-7-----7~-|
E--------------------------------------------------|

e----------5------------------------------------------------|
B--------5---5-8^(10)~--------------------------------------|
G--7^(9)-----------------2^(4)^2p0-[0]~---------------------|
D----------------------------------------2p0----------------|
A--------------------------------------------2-1-0-2p0------|
E------------------------------------------------------3-0--|


e-----------------------------------------------------------|
B--x-x-x-------12-x-12--------15^(17)~----------------------|
G--x-x-x-------12-x-12--------------------------------------|
D--------12-14---------14~----------------------------------|
A-----------------------------------------------------------|
E-----------------------------------------------------------|

Talkbox solo:

e-----------------------------------------------------------|
B-----------------------------------------------------------|
G--14^(16)^(16)^(15)^(15)-14-12-----------------------------|
D-----------------------------------------------------------|
A-----------------------------------------------------------|
E-----------------------------------------------------------|
      slow release while picking

e--------------------------------------------------------------|
B--------------------------------------------------------------|
G--0-2-^(4)^2-0-2-0--------------------------------------------|
D-------------------2-dive--------2^(3)^2p0-2-2^(3)-2p0--------|
A-------------------------------------------------------2-dive-|
E--------------------------------------------------------------|

"where do we go from heeeeeeere"
e-----------------------------------------------------------|
B---------------------------------15^(17)^(17)^(17)---------|
G-----------------------------------------------------------|
D-----------------------------------------------------------|
A-----------------------------------------------------------|
E-----------------------------------------------------------|
                                                  Slow release


e-------------------------------------------------------|
B--15p12-15^(17)~----15p12-15^(17)~----12---------------|
G-----------------------------------------14-12~--------|
D-------------------------------------------------------|
A-------------------------------------------------------|
E-------------------------------------------------------|

e-----------------------------------------------------------|
B-----------------------------------------------------------|
G---14^(16)^(16)-14p12-14^(16)~-----12-14~---14-^(16)-------|
D-----------------------------------------------------------|
A-----------------------------------------------------------|
E-----------------------------------------------------------|

e-----------------------------------------------------------|
B-----------------------------15----------------------------|
G--12-14-^(16)--12-14^(16)~------^(16)^14-------------------|
D-----------------------------------------------------------|
A-----------------------------------------------------------|
E-----------------------------------------------------------|
                                   slow release

"... keep .. talking"
e---------------------------------------------------|
B---------------------------------------------------|
G---------------------------------------------------|
D---------------------------------------------------|
A---------------------------------------------------|
E-------------------------7------------0-dive-slow--|
                          oa oa oa oa  oaaaahhh.....


Thats it. Hope it was any good.
            
Submit corrections

comments powered by Disqus
↑ Back to top | Pink Floyd Tabs for Keep Talking. Lyrics for acoustic guitar and electric guitar. Tablatures and chords are parodies/interpretations of the original songs. You may use it for private study, scholarship, research or language learning purposes only