>
 >
Is There Anybody Out There? 1

Is There Anybody Out There? 1 Guitar Tabs

Pink Floyd - Is There Anybody Out There? 1 chords, tabs, tablatures, lyrics

Guitar lessons | Add/correct | Request | Top 50 tabs Artists:  A B C D E F G H I J K L M N O P Q R S T U V W X Y Z 0-9

Is There Anybody Out There? 1 Guitar Tabs – Pink Floyd

CD, Sheet music, Poster

Do you like Is There Anybody Out There? 1? Share with your friends now
TabsTabs v2Tabs v3
Is_there_anybody_out_there.tab
                       From Pink Floyd's "The Wall"
                        IS THERE ANYBODY OUT THERE
                                                               Roger Waters

]     = 1/8 pause
rit.  = Ritardando (Gradually slower)
p     = pick
h     = hammer on
/     = slide up
\     = slide down
     = accent

Chords above tabs is just a hint on how to place your fingers
Am    = 002210
H/C   = 020010
C     = 332010 (or 032010)
Esus4 = 002200


  4/4
  Am
e||------0---------|------0---------|------0---------|------0---------|
H||----1---1-------|----1---1-------|----1---1-------|----1---1-------|
G||--2-------2---2-|--2-------2---2-|--2-------2---2-|--2-------2---2-|
D||2-----------2---|3-----------3---|4-----------4---|3-----------3---|
A||----------------|----------------|----------------|----------------|
E||----------------|----------------|----------------|----------------|
   >           >    >           >    >           >    >           >

e|------0-------0-|------0-------0-|--------0-------|----------------|
H|----1-------1---|----1-------1---|------1---1-----|------1---------|
G|--2-------2-----|--2-------2-----|----2-------2---|----2---2-------|
D|2-------0-------|----------------|--2-----------2-|--2-------2---2-|
A|----------------|3-------2-------|0---------------|0-----------0---|
E|----------------|----------------|----------------|----------------|

e|--------0-------|----------------|------0---------|------0---------|
H|------1---1-----|------1---------|----1---1-------|----1---1-------|
G|----2-------2---|----2---2---2---|--2-------2---2-|--2-------2---2-|
D|--2-----------2-|--2-------2---2-|2-----------2---|3-----------3---|
A|0---------------|0---------------|----------------|----------------|
E|----------------|----------------|----------------|----------------|
                                    >           >    >           >

e|------0---------|------0---------|--------------0-|------0---------|
H|----1---1-------|----1---1-------|----1-------1---|----1---1-------|
G|--2-------2---2-|--2-------2---2-|--2-------2-----|--2-------2-----|
D|4-----------4---|3-----------3---|3-----2-0-------|0---------------|
A|----------------|----------------|----------------|------------3-2-|
E|----------------|----------------|----------------|----------------|
  >           >    >           >

e|--------0-------|----------------|--------0-------|--------0-------|
H|------1---1-----|------1---------|------1---1-----|------1---------|
G|----2-------2---|----2---2-------|----2-------2---|----2-----------|
D|--2-----------2-|--2-------2---2-|--2-----------2-|--2-------------|
A|0---------------|0-----------0---|0---------------|0---------------|
E|----------------|----------------|----------------|----------------|

  C                H/C              Esus4
e|--------0-------|----------0-----|--------0-------|0---------------|
H|------1---1-----|------1h3---3---|------0---0---1-|--1-3-0-1---0---|
G|----0-------0---|----0---------0-|----2-------1---|----------2---0-|
D|--2-----------2-|--0-------------|--2-------------|----------------|
A|3---------------|2---------------|0---------------|----------------|
E|----------------|----------------|----------------|----------------|

  C                H/C              Esus4
e|--------0-------|----------0-----|--------0-------|8-------7-------|
H|------1---1-----|------1h3---3---|------0---0-]---|----------------|
G|----0-------0---|----0---------0-|----2---------9-|------7---------|
D|--2-----------2-|--0-------------|--2-------------|----------------|
A|3---------------|2---------------|0---------------|----------------|
E|----------------|----------------|----------------|----------------|

  Am
e|------0---------|------0---------|------0---------|------0---------|
H|----1---1-------|----1---1-------|----1---1-------|----1---1-------|
G|--2-------2---2-|--2-------2---2-|--2-------2---2-|--2-------2---2-|
D|2-----------2---|3-----------3---|4-----------4---|3-----------3---|
A|----------------|----------------|----------------|----------------|
E|----------------|----------------|----------------|----------------|

                                    Am
e|------0-------0-|------0-------0-|------------------|12------------||
H|----1-------1---|----1-------1---|------1/5-10-12-13|10------------||
G|--2-------2-----|--2-------2-----|----2-------------|9-------------||
D|2-------0-------|----------------|--2---------------|--------------||
A|----------------|3-------2-------|0-----------------|0-------------||
E|----------------|----------------|------------------|--------------||
                                          rit.

IS THERE ANYBODY OUT THERE (revised)
 
this is my new-and-improved version of this song's tab -- there were a
couple mistakes.  apologies to the original tab-person, I seem to have
lost your name in the editing.  (sheepish grin)





E|---------
B|---------
G|-----2---   (x8)
D|---------
A|--0------
E|---------


E|--------0---------|------0----------|------0----------|------0----------|
B|------1---1-------|-----1---1-------|----1---1--------|----1---1--------|
G|----2------2---2--|---2-------2---2-|---2------2---2--|---2-------2---2-|
D|--2----------2----|-3-----------3---|-4----------4----|-3-----------3---|
A|------------------|-----------------|-----------------|-----------------|
E|------------------|-----------------|-----------------|-----------------|
 
E|-------0--------0-|-------0-------0-|---------0-------|-----------------|
B|-----1--------1---|-----1-------1---|-------1---1-----|-----------1-----|
G|---2--------2-----|---2-------2-----|-----2-------2---|---------2---2---|
D|-2--------0-------|-----------------|---2-----------2-|---2---2-------2-|
A|------------------|-3-------2-------|-0---------------|-0---0-----------|
E|------------------|-----------------|-----------------|-----------------|

E|----------0-------|-----------------|
B|--------1---1-----|-----------1-----|
G|------2-------2---|---------2---2---|
D|----2-----------2-|---2---2---------|
A|--0---------------|-0---0-----------|
E|------------------|-----------------|

E|--------0---------|-------0---------|-------0---------|-------0---------|
B|------1---1-------|-----1---1-------|-----1---1-------|-----1---1-------|
G|----2------2---2--|---2-------2---2-|---2------2---2--|---2-------2---2-|
D|--2----------2----|-3-----------3---|-4----------4----|-3-----------3---|
A|------------------|-----------------|-----------------|-----------------|
E|------------------|-----------------|-----------------|-----------------|
 
E|----------------0-|-------0---------|---------0-------|
B|-----1--------1---|-----1---1-------|-------1---1-----|
G|---2--------2-----|---2-------2-----|-----2-------2---|
D|-3------2-0-------|-0---------------|---2-----------2-|
A|------------------|-------------3-2-|-0---------------|
E|------------------|-----------------|-----------------|

E|------------------|---------0-------|--------------0--|
B|------------1-----|-------1---1-----|-----------1-----|
G|----------2---2---|-----2-------2---|---------2-------|
D|----2---2-------2-|---2-----------2-|---2---2---------|
A|--0---0-----------|-0---------------|-0---0-----------|
E|------------------|-----------------|-----------------|

E|---------0--------|-----------0-----|---------0-------|-----------------|
B|-------1---1------|-------1-3---3-1-|-------0---0-----|---5--3-1-1-0-0--|
G|-----0-------0----|-----0-----------|-----2-------2---|-5--4-----------0|
D|---2-----------2--|---0-------------|---2-------------|-----------------|
A|-3----------------|-2---------------|-0---------------|-----------------|
E|------------------|-----------------|-----------------|-----------------|

E|---------0--------|-----------0-----|---------0-------|-----8------7----|
B|-------1---1------|-------1-3---3-1-|-------0---0-----|-----------------|
G|-----0-------0----|-----0-----------|-----2-------2---|---9------7------|
D|---2-----------2--|---0-------------|---2-------------|-----------------|
A|-3----------------|-2---------------|-0---------------|-----------------|
E|------------------|-----------------|-----------------|-----------------|

E|--------0---------|------0----------|-------0---------|------0----------|
B|------1---1-------|-----1---1-------|-----1---1-------|----1---1--------|
G|----2------2---2--|---2-------2---2-|----2------2---2-|---2-------2---2-|
D|--2----------2----|-3-----------3---|--4----------4---|-3-----------3---|
A|------------------|-----------------|-----------------|-----------------|
E|------------------|-----------------|-----------------|-----------------|
 
E|-------0--------0-|-------0-------0-|-----------------|-5-7-8------12---|
B|-----1--------1---|-----1-------1---|-------1----1/5--|------------10---|
G|---2--------2-----|---2-------2-----|-----2-----------|------------9----|
D|-2--------0-------|-----------------|---2-------------|------------10---|
A|------------------|-3-------2-------|-0---------------|------------0----|
E|------------------|-----------------|-----------------|-----------------|

the majority of this tab was perfect, I just noticed a few oddities and
changed them -- playing it as it is above now sounds exactly like the album.

tchand

well, sort of.  ;)





Comments


Popular Pink Floyd tabs & chords
On The Run Bass Tabs
Remember A Day Bass Tabs
Bravery Of Being Out Of Range Chords
Fat Old Sun Chords
Mother 2 Chords
Welcome To The Machine Chords
Eclipse 1 Tabs
Fat Old Sun 4 Tabs
Run Like Hell Tabs
Whots Uh The Deal Tabs


Song lyrics



↑ Back to top | Tablatures and chords are parodies/interpretations of the original songs. You may use it for private study, scholarship, research or language learning purposes only
© 2014 AZChords.com Contact us | Privacy policy | DMCA | Add/correct tabs | Request tabs | Top 50 tabs