» » »

Is There Anybody Out There? Tabs (ver.2)

Artists:  A B C D E F G H I J K L M N O P Q R S T U V W X Y Z # 

Is There Anybody Out There? Tabs (ver.2)

Pink Floyd
Rating:
0/5 (0 votes)

Hard to play? Try these video lessons and learn fast.
                PROPS GO TO: Marco

The right version!!!

Play 6 times------
E:----------------|------0---------|------0---------|------0---------|
B:----------------|----1---1-------|----1---1-------|----1---1-------|
G:----2-------2---|--2-------2---2-|--2-------2---2-|--2-------2---2-|
D:----------------|2-----------2---|3-----------3---|4-----------4---|
A:0-------0-------|----------------|----------------|----------------|
E:----------------|----------------|----------------|----------------|


E:------0---------|------0-------0-|------0-------0-|--------0-------|
B:----1---1-------|----1-------1---|----1-------1---|------1---1-----|
G:--2-------2---2-|--2-------2-----|--2-------2-----|----2-------2---|
D:3-----------3---|2-------0-------|----------------|--2-----------2-|
A:----------------|----------------|3-------2-------|0---------------|
E:----------------|----------------|----------------|----------------|


E:----------------|--------0-------|----------------|------0---------|
B:------1---------|------1---1-----|------1---------|----1---1-------|
G:----2---2-------|----2-------2---|----2---2---2---|--2-------2---2-|
D:--2-------2---2-|--2-----------2-|--2-------2---2-|2-----------2---|
A:-0----------0---|0---------------|0---------------|----------------|
E:----------------|----------------|----------------|----------------|


E:------0---------|------0---------|------0---------|--------------0-|
B:----1---1-------|----1---1-------|----1---1-------|----1-------1---|
G:--2-------2---2-|--2-------2---2-|--2-------2---2-|--2-------2-----|
D:3-----------3---|4-----------4---|3-----------3---|3-----2-0-------|
A:----------------|----------------|----------------|----------------|
E:----------------|----------------|----------------|----------------|


E:------0---------|--------0-------|----------------|--------0-------|
B:----1---1-------|------1---1-----|------1---------|------1---1-----|
G:--2-------2-----|----2-------2---|----2---2-------|----2-------2---|
D:0---------------|--2-----------2-|--2-------2---2-|--2-----------2-|
A:------------3-2-|0---------------|0-----------0---|0---------------|
E:----------------|----------------|----------------|----------------|

Slow                                             
E:--------0-------|--------0-------|----------0-----|--------0-------|
B:------1---------|------1---1-----|------1/3---3---|------0---0-----|
G:----2-----------|----0-------0---|----0---------0-|----2-------2---|
D:--2-------------|--2-----------2-|--0-------------|--2-------------|
A:0---------------|3---------------|2---------------|0---------------|
E:----------------|----------------|----------------|----------------|

                                                
E:----------------|--------0-------|----------0-----|--------0-------|
B:--5---3---1---0-|------1---1-----|------1/3---3---|------0---0-----|
G:5---4---2---0---|----0-------0---|----0---------0-|----2-------2---|
D:----------------|--2-----------2-|--0-------------|--2-------------|
A:----------------|3---------------|2---------------|0---------------|
E:----------------|----------------|----------------|----------------|


E:---8----7-------|------0---------|------0---------|------0---------|
B:----------------|----1---1-------|----1---1-------|----1---1-------|
G:-9---7----------|--2-------2---2-|--2-------2---2-|--2-------2---2-|
D:----------------|2-----------2---|3-----------3---|4-----------4---|
A:----------------|----------------|----------------|----------------|
E:----------------|----------------|----------------|----------------|

                   
E:------0---------|------0-------0-|------0-------0-|--------5---7---|
B:----1---1-------|----1-------1---|----1-------1---|----1/5---------|
G:--2-------2---2-|--2-------2-----|--2-------2-----|--2-------------|
D:3-----------3---|2-------0-------|----------------|-2--------------|
A:----------------|----------------|3-------2-------|0---------------|
E:----------------|----------------|----------------|----------------|


E:8--------12-----|
B:---------10-----|
G:----------9-----|
D:---------10-----|
A:----------0-----|
E:----------------|
            
Hard to play? Try these video lessons and learn fast. | Correct




comments powered by Disqus
↑ Back to top | Tablatures and chords are parodies/interpretations of the original songs. You may use it for private study, scholarship, research or language learning purposes only