» » »

Pink Floyd, Interstellar Overdrive Tabs (ver.1)

Artists:  A B C D E F G H I J K L M N O P Q R S T U V W X Y Z # 

Interstellar Overdrive Tabs (ver.1)

Pink Floyd Tabs
 Rating:
4/5 (4 votes)
Interstellar Overdrive lessons Tabs too difficult? Try these video lessons and learn fast
                INTERSTELLAR OVERDRIVE                                                                                 Pink Floyd
             (Barrett, Waters, Wright, Mason)


e----------------------------------------------------------------
B----------------------------------------------------------------
G----------------------------------------------------------------
D-------------2-2-------9-9-8-9-8--7-7-6-7-6-5-5-5-5-5-5---------
A-----------------------7-7-6-7-6--5-5-4-5-4-3-3-3-3-3-3-7-7-7-2-
E-12--/--0-0-0-0-0-0-------------------------------------5-5-5-0-
               ^
bass enters on right side here

e-0-------
B---0-----
G---------
D---------
A---------
E---------


e------------------------------------------0-----12-12-11-12-11-
B--------------------------------------------0---12-12-11-12-11-
G----------------------------------------------0-12-12-11-12-11-
D-9-9-8-9-8--7-7-6-7-6-5-5-5-5-5-5---------------14-14-13-14-13-
A-7-7-6-7-6--5-5-4-5-4-3-3-3-3-3-3-7-7-7-2-------14-14-13-14-13-
E----------------------------------5-5-5-0-------12-12-11-12-11-
                                                                                              

e--10-10-9--10-9--8--8--8--/--12------12-12-11-12-11------------
B--10-10-9--10-9--8--8--8--/--12------12-12-11-12-11------------
G--10-10-9--10-9--9--9--9--/--13------12-12-11-12-11------------
D--12-12-11-12-11-10-10-10-/--14------14-14-13-14-13------------
A--12-12-11-12-11-10-10-10-/--14------14-14-13-14-13------------
E--10-10-9--10-9--8--8--8--/--12------12-12-11-12-11------------
                           ^
                                                      
e--10-10-9--10-9--8--8--8--/--12--------------------------------    
B--10-10-9--10-9--8--8--8--/--12--------------------------------
G--10-10-9--10-9--9--9--9--/--13--------------------------------
D--12-12-11-12-11-10-10-10-/--14--------------------------------
A--12-12-11-12-11-10-10-10-/--14--------------------------------
E--10-10-9--10-9--8--8--8--/--12--------------------------------
                           ^
                                                                                                 
 / - slide up
 / - slow slide up
 ^
 Enjoy !
            
Submit corrections

comments powered by Disqus
↑ Back to top | Pink Floyd Tabs for Interstellar Overdrive. Lyrics for acoustic guitar and electric guitar. Tablatures and chords are parodies/interpretations of the original songs. You may use it for private study, scholarship, research or language learning purposes only