» » »

Pink Floyd, If Tabs (ver.1)

Artists:  A B C D E F G H I J K L M N O P Q R S T U V W X Y Z # 

If Tabs (ver.1)

Pink Floyd Tabs
 Rating:
4/5 (4 votes)
If lessons Tabs too difficult? Try these video lessons and learn fast
                IF (From Atom Heart Mother)

Probably steel string acoustic, tuned to yer standard E-A-D-G-B-E.

 (E)             (God Knows)     (E)             (D)
|------------------------------------------------------------------
|----------------2-----2-2-----2-----------------------------------
|2-----2-2-----2--1---1-1-1---1-12-----2-2-----2-0-----0-0-----0---
|-1---1-1-1---1-1--2-2-----2-2----1---1-1-1---1-1-2---2-2-2---2-2--
|--0-0-----0-0------0-------0------0-0-----0-0-----3-3-----3-3-----
|---0-------0-----------------------0-------0-------2-------2------

 (E)             (D)             (E)     (?)     (?)     (?)
|------------------------------------------------2-----2-----------
|----------------------------------------4-----4--1---1-12-----2---
|2-----2-2-----2-0-----0-0-----0-2-----2--3---3-3--2-2----1---1-1--
|-1---1-1-1---1-1-2---2-2-2---2-2-1---1-1--4-4------3------2-2----- (repeat)
|--0-0-----0-0-----3-3-----3-3-----0-0------2---------------0------
|---0-------0-------2-------2-------0------------------------------


Lovely, eh?

This TAB supplied by Lucifer Sam at Newcastle Poly...a very nice man...

Captain Trips.
x.
            
Submit corrections

comments powered by Disqus
↑ Back to top | Pink Floyd Tabs for If. Lyrics for acoustic guitar and electric guitar. Tablatures and chords are parodies/interpretations of the original songs. You may use it for private study, scholarship, research or language learning purposes only