» » »

Pink Floyd, Hey You Tabs (ver.3)

Artists:  A B C D E F G H I J K L M N O P Q R S T U V W X Y Z # 

Hey You Tabs (ver.3)

Pink Floyd Tabs
 Rating:
4/5 (4 votes)
Hey You lessons Tabs too difficult? Try these video lessons and learn fast
1
                standard tuning

 -----------------------------------------------------------5--------5----
 --7--------8--------8-----7--------8--------8-----5-----------6----------
 --------9-----9--------9--------9-----9--------9--------7--------7-----7-
 -----9-----------9-----------9-----------9-----------7-------------------
 -------------------------------------------------------------------------
 -------------------------------------------------------------------------
 	  .
 -----------5--------5----
 --5-----------6---------- play twice 
 --------7--------7-----7-
 -----7-------------------
 -------------------------
 -------------------------
 
 
    ----------3--------3-------------------3--------------3-------
    -7-----------------------7------------------------------------
    -------9-----9--------9------------9-------9---------------9--
    ----9-----------9-------------9------------------9------------
    --------------------------------------------------------------
    --------------------------------------------------------------
 
 
 ---------------------------------7-----------7-----------7--------7-----
 -7-------8--7-----8--8--7-----7--------7--------7-----7-----7-----------
 ------9-----------------------------7-----7--------------------7-----7--
 ---9-----------9-----------9-----------------------9--------------------
 ------------------------------------------------------------------------
 ------------------------------------------------------------------------
 
 ------------------------------------------------------------------------
 -7--------8--------8-----7--------8--------8-----7--------8-----------8-
 -------9-----9--------9--------9-----9--------9--------9-----9----------
 ----9-----------9-----------9-----------9-----------9-----------9-------
 ------------------------------------------------------------------------
 ------------------------------------------------------------------------
 
 -----------7--------7--------------7--------7--------------5--------5----
 --7-----7-----7--------7--7-----7-----7--------7--5-----------7----------
 -----------------7-----------------------7--------------7--------7-----7-
 -----9-----------------------9-----------------------7-------------------
 -------------------------------------------------------------------------
 -------------------------------------------------------------------------
 
 ----------5--------5-----7-----------------3-----------3--------3-----
 -5-----------7-----------8-----8--7-----------5-----5-----5--------5--
 -------5--------7-----7--7--7-----------7--------5-----------5--------
 ----7--------------------------------7--------------------------------
 ----------------------------------------------------------------------
 ----------------------------------------------------------------------
 			
 ----------3--------3-----
 -5-----5-----5--------3--
 ----5-----------5--------
 -------------------------
 -------------------------
 -------------------------

 ----------7--------7--------------5--------5--------------8-------------
 -7-----7-----7--------7--5-----5-----5--------3--7-----------------8----
 ----------------7-----------------------5--------------9-----9--------9-
 ----9-----------------------7-----------------------9-----------9-------
 ------------------------------------------------------------------------
 ------------------------------------------------------------------------
 
 ----------------------------------5--------5--------------5-----
 -7--------8-------8------5-----------6-----------5-----------6--
 -------9-----9--------9--------7--------7-----7--------7--------
 ----9-----------9-----------7-----------------------7-----------
 ----------------------------------------------------------------
 ----------------------------------------------------------------
            
Submit corrections

comments powered by Disqus
↑ Back to top | Pink Floyd Tabs for Hey You. Lyrics for acoustic guitar and electric guitar. 1 Tablatures and chords are parodies/interpretations of the original songs. You may use it for private study, scholarship, research or language learning purposes only